Song name
# A B C D E F G H I J K L M N O P Q R S T U V W X Y Z

Theory Of A Deadman - All Or Nothing tab

Title: All or Nothing
Band: Theory Of A Deadman
Tune: Standard


- - - Piano Intro - - -

 Verse  (M = Mute)
         Bm                  D                       A
e|--7--7--7--7-7--m---5-5--5--5--5-5---5-5--5-5--5-5-5--5--5-5--5-5--|
B|--7--7--7--7-7--m---7-7--7--7--7-7---5-5--5-5--5-5-5--5--5-5--5-5--|
G|--7--7--7--7-7--m---7-7--7--7--7-7---6-6--6-6--6-6-6--6--6-6--6-6--|
D|--9--9--9--9-9--m---7-7--7--7--7-7---7-7--7-7--7-7-7--7--7-7--7-7--|
A|--9--9--9--9-9--m---5-5--5--5--5-5---7-7--7-7--7-7-7--7--7-7--7-7--|
E|--7--7--7--7-7--m---5-5--5--5--5-5---5-5--5-5--5-5-5--5--5-5--5-5--|

         Bm                  D                       A
e|--7--7--7--7-7--m---5-5--5--5--5-5---5-5--5-5--5-5-5--5--5-5-m--|
B|--7--7--7--7-7--m---7-7--7--7--7-7---5-5--5-5--5-5-5--5--5-5-m--|
G|--7--7--7--7-7--m---7-7--7--7--7-7---6-6--6-6--6-6-6--6--6-6-m--|
D|--9--9--9--9-9--m---7-7--7--7--7-7---7-7--7-7--7-7-7--7--7-7-m--|  X 2
A|--9--9--9--9-9--m---5-5--5--5--5-5---7-7--7-7--7-7-7--7--7-7-m--|
E|--7--7--7--7-7--m---5-5--5--5--5-5---5-5--5-5--5-5-5--5--5-5-m--|

Pre-Chorus

              E                               G
e|--0--0--0--0-0--0-0--0--0-0----3--3--3--3-3--3-3--3--3-3---|
B|--0--0--0--0-0--0-0--0--0-0----3--3--3--3-3--3-3--3--3-3---|
G|--1--1--1--1-1--1-1--1--1-1----4--4--4--4-4--4-4--4--4-4---|
D|--2--2--2--2-2--2-2--2--2-2----5--5--5--5-5--5-5--5--5-5---|
A|--2--2--2--2-2--2-2--2--2-2----5--5--5--5-5--5-5--5--5-5---|
E|--0--0--0--0-0--0-0--0--0-0----5--5--5--5-5--5-5--5--5-5---|

               A
e|--5--5--5--5-5--5-5--5--5-5---|
B|--5--5--5--5-5--5-5--5--5-5---|
G|--6--6--6--6-6--6-6--6--6-6---|
D|--7--7--7--7-7--7-7--7--7-7---|
A|--7--7--7--7-7--7-7--7--7-7---|
E|--5--5--5--5-5--5-5--5--5-5---|

Chorus

        G               A                      Bm
e|--3--3-3--3-3---5--5-5--5-5-----7-7--7--7--7--7-7--7--7-7--7--|
B|--3--3-3--3-3---5--5-5--5-5-----7-7--7--7--7--7-7--7--7-7--7--|
G|--4--4-4--4-4---6--6-6--6-6-----7-7--7--7--7--7-7--7--7-7--7--|   X 2
D|--5--5-5--5-5---7--7-7--7-7-----9-9--9--9--9--9-9--9--9-9--9--|
A|--5--5-5--5-5---7--7-7--7-7-----9-9--9--9--9--9-9--9--9-9--9--|
E|--3--3-3--3-3---5--5-5--5-5-----7-7--7--7--7--7-7--7--7-7--7--|

        G               A                 E
e|--3--3-3--3-3---5--5-5--5-5---0--0--0--0--0--0--0--0--|
B|--3--3-3--3-3---5--5-5--5-5---0--0--0--0--0--0--0--0--|
G|--4--4-4--4-4---6--6-6--6-6---1--1--1--1--1--1--1--1--|
D|--5--5-5--5-5---7--7-7--7-7---2--2--2--2--2--2--2--2--|
A|--5--5-5--5-5---7--7-7--7-7---2--2--2--2--2--2--2--2--|
E|--3--3-3--3-3---5--5-5--5-5---0--0--0--0--0--0--0--0--|

        G               A                      Bm
e|--3--3-3--3-3---5--5-5--5-5-----7-7--7--7--7--7-7--7--7-7--7--|
B|--3--3-3--3-3---5--5-5--5-5-----7-7--7--7--7--7-7--7--7-7--7--|
G|--4--4-4--4-4---6--6-6--6-6-----7-7--7--7--7--7-7--7--7-7--7--|   X 2
D|--5--5-5--5-5---7--7-7--7-7-----9-9--9--9--9--9-9--9--9-9--9--|
A|--5--5-5--5-5---7--7-7--7-7-----9-9--9--9--9--9-9--9--9-9--9--|
E|--3--3-3--3-3---5--5-5--5-5-----7-7--7--7--7--7-7--7--7-7--7--|

- - - Rest Of Song - - -

Verse 2 (same as verse 1)

Pre-Chorus (same)

Chorus  (same)

Solo  (reapeat chorus w/o G-A-E)

Pre-Chorus (pause then play just the E part at the end)

Chorus  (same)

End

I did not entirely figure out this tab, i had some help from the guitar teacher on the 
and solo so i thank him for the parts he did. Also i just wrote what the rest of the song 
words since it is quite a long tab and i'm lazy.

Stickx N Pickx
Tap to rate this tab
# A B C D E F G H I J K L M N O P Q R S T U V W X Y Z