Song name
# A B C D E F G H I J K L M N O P Q R S T U V W X Y Z

Theory Of A Deadman - No Chance In Hell tab

Song: No Chance In Hell
Band: Theory Of A Deadman
Album: WWE The Music Volume 8



This Song Uses Effects So This Is Correct!

|-----------------------------------------|
|-----------------------------------------|
|-----------------------------------------|
|-----------------------------------------|
|-----------------------------------------|
|0-0-0----3-3-3-3-------------------------|

|-----------------------------------------|
|-----------------------------------------|
|-----------------------------------------|
|-----------------------------------------|
|--------------------7-5------------------|
|0-0-0----3-3-3-3--------7-5-3-5----------|

|-----------------------------------------|
|-----------------------------------------|
|-----------------------------------------|
|-----------------------------------------|
|-----------------------------------------|
|0-0-0----3-3-3-3-------------------------|

|-----------------------------------------|
|-----------------------------------------|
|-----------------------------------------|
|-----------------------------------------|
|-----------------------------------------|
|0-0-0----3-3-3-3-------------------------|
^ At The End Of This Riff Slide Your Pick Down The Strings

|-----------------------------------------|
|-----------------------------------------|
|---------7--6--5-------------------------|
|---------5--4--3-------------------------|
|-0-5---------------0-5---7-5-------------|
|-0-3---------------0-3------7-5-3-5------|

|-----------------------------------------|
|-----------------------------------------|
|---------7--6--5---------7-8-------------|
|---------5--4--3---------5-6-------------|
|-0-5---------------0-5-------------------|
|-0-3---------------0-3-------------------|

|---------------|
|---------------|
|-7-5----5-7-7--|
|-----7---------|
|---------------|
|---------------|

^ Play This Throughout The Chorus


|-----------------------------------------|
|-----------------------------------------|
|---------7--6--5-------------------------|
|---------5--4--3-------------------------|
|-0-5---------------0-5---7-5-------------|
|-0-3---------------0-3------7-5-3-5------|
No Chance, No Chance In Hell, You got
|-----------------------------------------|
|-----------------------------------------|
|---------7--6--5---------7-8-------------|
|---------5--4--3---------5-6-------------|
|-0-5---------------0-5-------------------|
|-0-3---------------0-3-------------------|
No Chance, No Chance In Hell, You got

Thats All I Know, TY

Tap to rate this tab
 
# A B C D E F G H I J K L M N O P Q R S T U V W X Y Z