Song name
# A B C D E F G H I J K L M N O P Q R S T U V W X Y Z

Theory Of A Deadman - I Hate My Life tab

the verses uses these three chords in this order
 E -4----------4---------2--------------|
 B -4----------4---------2--------------|
 G -6----------4---------2--------------|
 D -6----------6---------4--------------|
 A -4----------6---------4--------------|
 E -4----------4---------2--------------|

the Chorus
 E -4----------2---------4------------|
 B -4----------2---------4------------|
 G -4----------2---------6------------|
 D -6----------4---------6------------|
 A -6----------4---------4------------|
 E -4----------2---------4------------|

and thats prity much the hole song

and here is the solo http://www.911tabs.com/link/?5867027
Tap to rate this tab
 
# A B C D E F G H I J K L M N O P Q R S T U V W X Y Z