Song name
# A B C D E F G H I J K L M N O P Q R S T U V W X Y Z

Theory Of A Deadman - Quiver tab

Quiver
Theory Of A Deadman
Gasoline (2005)

Crutch: written by Tyler Connolly, Dean Back, Dave Brenner

GTR I - Drop C Tuning 'Acoustic' (d,A,F,C,G,C)
GTR II - Drop C Tuning 'Electric' (d,A,F,C,G,C)
GTR III - Drop C Tuning 'Electric' (d,A,F,C,G,C)

Intro

  GTR I
d|--------------------------------------------------------------|
A|--------------------------------------------------------------|
F|--------------------------------------------------------------|
C|-3-4-5-0-3-4-5-0---0-3-5-5-3-3--3-4-5-0-3-4-5-0---0-3-5-5-3-3-|
G|-3-4-5-0-3-4-5-0---0-3-5-5-3-3--3-4-5-0-3-4-5-0---0-3-5-5-3-3-|
C|-3-4-5-0-3-4-5-0---0-3-5-5-3-3--3-4-5-0-3-4-5-0---0-3-5-5-3-3-|
 |
 |GTR II (Distortion)
d|--------------------------------------------------------------|
A|--------------------------------------------------------------|
F|--------------------------------------------------------------|
C|----------------------------------------------------------5+5+|
G|--------------------------------------------------------------|
C|--------------------------------------------------------------|
 |
 |GTR III (Distortion)
d|--------------------------------------------------------------|
A|--------------------------------------------------------------|
F|--------------------------------------------------------------|
C|----------------------------------------------------------xxx-|
G|----------------------------------------------------------xxx-|
C|----------------------------------------------------------xxx-|

  GTR I
d|--------------------------------------------------------------|
A|--------------------------------------------------------------|
F|--------------------------------------------------------------|
C|-3-4-5-0-3-4-5-0---0-3-5-5-3-3--3-4-5-0-3-4-5-0---0-3-5-5-3-3-|
G|-3-4-5-0-3-4-5-0---0-3-5-5-3-3--3-4-5-0-3-4-5-0---0-3-5-5-3-3-|
C|-3-4-5-0-3-4-5-0---0-3-5-5-3-3--3-4-5-0-3-4-5-0---0-3-5-5-3-3-|
 |
 |GTR II
d|--------------------------------------------------------------|
A|--------------------------------------------------------------|
F|--------------------------------------------------------------|
C|-3-4-5-0-3-4-5-0---0-3-5-5-3-3--3-4-5-0-3-4-5-0---0-3-5-5-3-3-|
G|--------------------------------------------------------------|
C|--------------------------------------------------------------|
 |
 |GTR III
d|--------------------------------------------------------------|
A|--------------------------------------------------------------|
F|--------------------------------------------------------------|
C|-3-4-5-0-3-4-5-0---0-3-5-5-3-3--3-4-5-0-3-4-5-0---0-3-5-5-3-3-|
G|-3-4-5-0-3-4-5-0---0-3-5-5-3-3--3-4-5-0-3-4-5-0---0-3-5-5-3-3-|
C|-3-4-5-0-3-4-5-0---0-3-5-5-3-3--3-4-5-0-3-4-5-0---0-3-5-5-3-3-|

Verse

  GTR I
d|--------------------------------------------------------------|
A|--------------------------------------------------------------|
F|--------------------------------------------------------------|
C|-3-4-5-0-3-4-5-0-0-0-3-5-5-3-3--3-4-5-0-3-4-5-0-0-0-3-5-5-3-3-|
G|-3-4-5-0-3-4-5-0-0-0-3-5-5-3-3--3-4-5-0-3-4-5-0-0-0-3-5-5-3-3-|
C|-3-4-5-0-3-4-5-0-0-0-3-5-5-3-3--3-4-5-0-3-4-5-0-0-0-3-5-5-3-3-|
 | . . . . . . . . . . . . . . .  . . . . . . . . . . . . . . .
 |GTR II
d|--------------------------------------------------------------|
A|--------------------------------------------------------------|
F|--------------------------------------------------------------|
C|--------------------------------------------------------------|
G|--------------------------------------------------------------|
C|--------------------------------------------------------------|
 |
 |GTR III
d|--------------------------------------------------------------|
A|--------------------------------------------------------------|
F|--------------------------------------------------------------|
C|-3-4-5-0-3-4-5-0-0-0-3-5-5-3-3--3-4-5-0-3-4-5-0-0-0-3-5-5-3-3-|
G|-3-4-5-0-3-4-5-0-0-0-3-5-5-3-3--3-4-5-0-3-4-5-0-0-0-3-5-5-3-3-|
C|-3-4-5-0-3-4-5-0-0-0-3-5-5-3-3--3-4-5-0-3-4-5-0-0-0-3-5-5-3-3-|
   . . . . . . . . . . . . . . .  . . . . . . . . . . . . . . .

  GTR I
d|--------------------------------------------------------------|
A|--------------------------------------------------------------|
F|--------------------------------------------------------------|
C|-3-4-5-0-3-4-5-0-0-0-3-5-5-3-3--3-4-5-0-3-4-5-0---0-3-5-5-3-3-|
G|-3-4-5-0-3-4-5-0-0-0-3-5-5-3-3--3-4-5-0-3-4-5-0---0-3-5-5-3-3-|
C|-3-4-5-0-3-4-5-0-0-0-3-5-5-3-3--3-4-5-0-3-4-5-0---0-3-5-5-3-3-|
 | . . . . . . . . . . . . . . .  
 |GTR II
d|--------------------------------------------------------------|
A|--------------------------------------------------------------|
F|--------------------------------------------------------------|
C|--------------------------------3-4-5-0-3-4-5-0---0-3-5-5-3-3-|
G|--------------------------------------------------------------|
C|--------------------------------------------------------------|
 |
 |GTR III
d|--------------------------------------------------------------|
A|--------------------------------------------------------------|
F|--------------------------------------------------------------|
C|-3-4-5-0-3-4-5-0-0-0-3-5-5-3-3--3-4-5-0-3-4-5-0---0-3-5-5-3-3-|
G|-3-4-5-0-3-4-5-0-0-0-3-5-5-3-3--3-4-5-0-3-4-5-0---0-3-5-5-3-3-|
C|-3-4-5-0-3-4-5-0-0-0-3-5-5-3-3--3-4-5-0-3-4-5-0---0-3-5-5-3-3-|
   . . . . . . . . . . . . . . .  

  GTR I
d|--------------------------------------------------------------|
A|--------------------------------------------------------------|
F|--------------------------------------------------------------|
C|-3-4-5-0-3-4-5-0-0-0-3-5-5-3-3--3-4-5-0-3-4-5-0-0-0-3-5-5-3-3-|
G|-3-4-5-0-3-4-5-0-0-0-3-5-5-3-3--3-4-5-0-3-4-5-0-0-0-3-5-5-3-3-|
C|-3-4-5-0-3-4-5-0-0-0-3-5-5-3-3--3-4-5-0-3-4-5-0-0-0-3-5-5-3-3-|
 | . . . . . . . . . . . . . . .  . . . . . . . . . . . . . . .
 |GTR II
d|--------------------------------------------------------------|
A|--------------------------------------------------------------|
F|--------------------------------------------------------------|
C|--------------------------------------------------------------|
G|--------------------------------------------------------------|
C|--------------------------------------------------------------|
 |
 |GTR III
d|--------------------------------------------------------------|
A|--------------------------------------------------------------|
F|--------------------------------------------------------------|
C|-3-4-5-0-3-4-5-0-0-0-3-5-5-3-3--3-4-5-0-3-4-5-0-0-0-3-5-5-3-3-|
G|-3-4-5-0-3-4-5-0-0-0-3-5-5-3-3--3-4-5-0-3-4-5-0-0-0-3-5-5-3-3-|
C|-3-4-5-0-3-4-5-0-0-0-3-5-5-3-3--3-4-5-0-3-4-5-0-0-0-3-5-5-3-3-|
   . . . . . . . . . . . . . . .  . . . . . . . . . . . . . . .

  GTR I
d|--------------------------------------------------------------|
A|--------------------------------------------------------------|
F|--------------------------------------------------------------|
C|-3-4-5-0-3-4-5-0-0-0-3-5-5-3-3--3-4-5-0-3-4-5-0---0-3-5-5-3-3-|
G|-3-4-5-0-3-4-5-0-0-0-3-5-5-3-3--3-4-5-0-3-4-5-0---0-3-5-5-3-3-|
C|-3-4-5-0-3-4-5-0-0-0-3-5-5-3-3--3-4-5-0-3-4-5-0---0-3-5-5-3-3-|
 | . . . . . . . . . . . . . . .                                
 |GTR II
d|--------------------------------------------------------------|
A|--------------------------------------------------------------|
F|--------------------------------------------------------------|
C|--------------------------------3-4-5-0-3-4-5-0---0-3-5-5-3-3-|
G|--------------------------------------------------------------|
C|--------------------------------------------------------------|
 |
 |GTR III
d|--------------------------------------------------------------|
A|--------------------------------------------------------------|
F|--------------------------------------------------------------|
C|-3-4-5-0-3-4-5-0-0-0-3-5-5-3-3--3-4-5-0-3-4-5-0---0-3-5-5-3-3-|
G|-3-4-5-0-3-4-5-0-0-0-3-5-5-3-3--3-4-5-0-3-4-5-0---0-3-5-5-3-3-|
C|-3-4-5-0-3-4-5-0-0-0-3-5-5-3-3--3-4-5-0-3-4-5-0---0-3-5-5-3-3-|
   . . . . . . . . . . . . . . .                               

Pre Chorus

  GTR I
d|--------------------------|
A|--------------------------|
F|--------------------------|
C|-5----5-5-5-4----4-4-4-3--|
G|-5----5-5-5-4----4-4-4-3--|
C|-5----5-5-5-4----4-4-4-3--|
 |
 |GTR II (Dist. with Wah)
d|--------------------------|
A|-3b---------4b---------6b-|
F|--------------------------|
C|--------------------------|
G|--------------------------|
C|--------------------------|
 |
 |GTR III (Distortion)
d|--------------------------|
A|--------------------------|
F|--------------------------|
C|-5----------4----------3--|
G|-5----------4----------3--|
C|-5----------4----------3--|

Chorus

  GTR I
d|--------------------------------------------------------------|
A|--------------------------------------------------------------|
F|--------------------------------------------------------------|
C|-3-4-5-0-3-4-5-0---0-3-5-5-3-3--3-4-5-0-3-4-5-0---0-3-5-x-x-x-|
G|-3-4-5-0-3-4-5-0---0-3-5-5-3-3--3-4-5-0-3-4-5-0---0-3-5-x-x-x-|
C|-3-4-5-0-3-4-5-0---0-3-5-5-3-3--3-4-5-0-3-4-5-0---0-3-5-x-x-x-|
 |
 |GTR II
d|--------------------------------------------------------------|
A|--------------------------------------------------------------|
F|--------------------------------------------------------------|
C|-3-4-5-0-3-4-5-0---0-3-5-5-3-3--3-4-5-0-3-4-5-0---0-3-5-x-x-x-|
G|--------------------------------------------------------x-x-x-|
C|--------------------------------------------------------x-x-x-|
 |
 |GTR III
d|--------------------------------------------------------------|
A|--------------------------------------------------------------|
F|--------------------------------------------------------------|
C|-3-4-5-0-3-4-5-0---0-3-5-5-3-3--3-4-5-0-3-4-5-0---0-3-5-x-x-x-|
G|-3-4-5-0-3-4-5-0---0-3-5-5-3-3--3-4-5-0-3-4-5-0---0-3-5-x-x-x-|
C|-3-4-5-0-3-4-5-0---0-3-5-5-3-3--3-4-5-0-3-4-5-0---0-3-5-x-x-x-|

  GTR I
d|--------------------------------------------------------------|
A|--------------------------------------------------------------|
F|--------------------------------------------------------------|
C|-3-4-5-0-3-4-5-0---0-3-5-5-3-3--3-4-5-0-3-4-5-0---0-3-5-5-3-3-|
G|-3-4-5-0-3-4-5-0---0-3-5-5-3-3--3-4-5-0-3-4-5-0---0-3-5-5-3-3-|
C|-3-4-5-0-3-4-5-0---0-3-5-5-3-3--3-4-5-0-3-4-5-0---0-3-5-5-3-3-|
 |
 |GTR II
d|--------------------------------------------------------------|
A|--------------------------------------------------------------|
F|--------------------------------------------------------------|
C|-3-4-5-0-3-4-5-0---0-3-5-5-3-3--3-4-5-0-3-4-5-0---0-3-5-5-3-3-|
G|--------------------------------------------------------------|
C|--------------------------------------------------------------|
 |
 |GTR III
d|--------------------------------------------------------------|
A|--------------------------------------------------------------|
F|--------------------------------------------------------------|
C|-3-4-5-0-3-4-5-0---0-3-5-5-3-3--3-4-5-0-3-4-5-0---0-3-5-5-3-3-|
G|-3-4-5-0-3-4-5-0---0-3-5-5-3-3--3-4-5-0-3-4-5-0---0-3-5-5-3-3-|
C|-3-4-5-0-3-4-5-0---0-3-5-5-3-3--3-4-5-0-3-4-5-0---0-3-5-5-3-3-|

  GTR I
d|--------------------------|
A|--------------------------|
F|--------------------------|
C|-5----5-5-5-4----4-4-4-3--|
G|-5----5-5-5-4----4-4-4-3--|
C|-5----5-5-5-4----4-4-4-3--|
 |
 |GTR II (Dist. with Wah)
d|--------------------------|
A|-----------------------3--|
F|-----------------------2--|
C|-----------------------0--|
G|--------------------------|
C|--------------------------|
 |
 |GTR III (Distortion)
d|--------------------------|
A|--------------------------|
F|--------------------------|
C|-5----5-5-5-4----4-4-4-3--|
G|-5----5-5-5-4----4-4-4-3--|
C|-5----5-5-5-4----4-4-4-3--|

Verse 2

  GTR I
d|--------------------------------------------------------------|
A|--------------------------------------------------------------|
F|--------------------------------------------------------------|
C|-3-4-5-0-3-4-5-0-0-0-3-5-5-3-3--3-4-5-0-3-4-5-0-0-0-3-5-5-3-3-|
G|-3-4-5-0-3-4-5-0-0-0-3-5-5-3-3--3-4-5-0-3-4-5-0-0-0-3-5-5-3-3-|
C|-3-4-5-0-3-4-5-0-0-0-3-5-5-3-3--3-4-5-0-3-4-5-0-0-0-3-5-5-3-3-|
 | . . . . . . . . . . . . . . .  . . . . . . . . . . . . . . .
 |GTR II
d|--------------------------------------------------------------|
A|--------------------------------------------------------------|
F|--------------------------------------------------------------|
C|--------------------------------------------------------------|
G|--------------------------------------------------------------|
C|--------------------------------------------------------------|
 |
 |GTR III
d|--------------------------------------------------------------|
A|--------------------------------------------------------------|
F|--------------------------------------------------------------|
C|-3-4-5-0-3-4-5-0-0-0-3-5-5-3-3--3-4-5-0-3-4-5-0-0-0-3-5-5-3-3-|
G|-3-4-5-0-3-4-5-0-0-0-3-5-5-3-3--3-4-5-0-3-4-5-0-0-0-3-5-5-3-3-|
C|-3-4-5-0-3-4-5-0-0-0-3-5-5-3-3--3-4-5-0-3-4-5-0-0-0-3-5-5-3-3-|
   . . . . . . . . . . . . . . .  . . . . . . . . . . . . . . .

  GTR I
d|--------------------------------------------------------|
A|--------------------------------------------------------|
F|--------------------------------------------------------|
C|-3-4-5-0-3-4-5-0-0-0-3-5-5-3-3--3-4-5-0-3-4-5-0---0-5---|
G|-3-4-5-0-3-4-5-0-0-0-3-5-5-3-3--3-4-5-0-3-4-5-0---0-5---|
C|-3-4-5-0-3-4-5-0-0-0-3-5-5-3-3--3-4-5-0-3-4-5-0---0-5---|
 | . . . . . . . . . . . . . . .  
 |GTR II
d|--------------------------------------------------------|
A|--------------------------------------------------------|
F|--------------------------------------------------------|
C|--------------------------------3-4-5-0-3-4-5-0---0-5b--|
G|--------------------------------------------------------|
C|--------------------------------------------------------|
 |
 |GTR III
d|--------------------------------------------------------|
A|--------------------------------------------------------|
F|--------------------------------------------------------|
C|-3-4-5-0-3-4-5-0-0-0-3-5-5-3-3--3-4-5-0-3-4-5-0---0-5---|
G|-3-4-5-0-3-4-5-0-0-0-3-5-5-3-3--3-4-5-0-3-4-5-0---0-5---|
C|-3-4-5-0-3-4-5-0-0-0-3-5-5-3-3--3-4-5-0-3-4-5-0---0-5---|
   . . . . . . . . . . . . . . .  

  GTR I
d|--------------------------------------------------------------|
A|--------------------------------------------------------------|
F|--------------------------------------------------------------|
C|-3-4-5-0-3-4-5-0-0-0-3-5-5-3-3--3-4-5-0-3-4-5-0-0-0-3-5-5-3-3-|
G|-3-4-5-0-3-4-5-0-0-0-3-5-5-3-3--3-4-5-0-3-4-5-0-0-0-3-5-5-3-3-|
C|-3-4-5-0-3-4-5-0-0-0-3-5-5-3-3--3-4-5-0-3-4-5-0-0-0-3-5-5-3-3-|
 | . . . . . . . . . . . . . . .  . . . . . . . . . . . . . . .
 |GTR II
d|--------------------------------------------------------------|
A|--------------------------------------------------------------|
F|--------------------------------------------------------------|
C|--------------------------------------------------------------|
G|--------------------------------------------------------------|
C|--------------------------------------------------------------|
 |
 |GTR III
d|--------------------------------------------------------------|
A|--------------------------------------------------------------|
F|--------------------------------------------------------------|
C|-3-4-5-0-3-4-5-0-0-0-3-5-5-3-3--3-4-5-0-3-4-5-0-0-0-3-5-5-3-3-|
G|-3-4-5-0-3-4-5-0-0-0-3-5-5-3-3--3-4-5-0-3-4-5-0-0-0-3-5-5-3-3-|
C|-3-4-5-0-3-4-5-0-0-0-3-5-5-3-3--3-4-5-0-3-4-5-0-0-0-3-5-5-3-3-|
   . . . . . . . . . . . . . . .  . . . . . . . . . . . . . . .

  GTR I
d|--------------------------------------------------------------|
A|--------------------------------------------------------------|
F|--------------------------------------------------------------|
C|-3-4-5-0-3-4-5-0-0-0-3-5-5-3-3--3-4-5-0-3-4-5-0---0-3-5-5-3-3-|
G|-3-4-5-0-3-4-5-0-0-0-3-5-5-3-3--3-4-5-0-3-4-5-0---0-3-5-5-3-3-|
C|-3-4-5-0-3-4-5-0-0-0-3-5-5-3-3--3-4-5-0-3-4-5-0---0-3-5-5-3-3-|
 | . . . . . . . . . . . . . . .                                
 |GTR II
d|--------------------------------------------------------------|
A|--------------------------------------------------------------|
F|--------------------------------------------------------------|
C|--------------------------------3-4-5-0-3-4-5-0---0-3-5-5-3-3-|
G|--------------------------------------------------------------|
C|--------------------------------------------------------------|
 |
 |GTR III
d|--------------------------------------------------------------|
A|--------------------------------------------------------------|
F|--------------------------------------------------------------|
C|-3-4-5-0-3-4-5-0-0-0-3-5-5-3-3--3-4-5-0-3-4-5-0---0-3-5-5-3-3-|
G|-3-4-5-0-3-4-5-0-0-0-3-5-5-3-3--3-4-5-0-3-4-5-0---0-3-5-5-3-3-|
C|-3-4-5-0-3-4-5-0-0-0-3-5-5-3-3--3-4-5-0-3-4-5-0---0-3-5-5-3-3-|
   . . . . . . . . . . . . . . .                               

Pre Chorus

  GTR I
d|--------------------------|
A|--------------------------|
F|--------------------------|
C|-5----5-5-5-4----4-4-4-3--|
G|-5----5-5-5-4----4-4-4-3--|
C|-5----5-5-5-4----4-4-4-3--|
 |
 |GTR II (Dist. with Wah)
d|--------------------------|
A|-3b---------4b---------6b-|
F|--------------------------|
C|--------------------------|
G|--------------------------|
C|--------------------------|
 |
 |GTR III (Distortion)
d|--------------------------|
A|--------------------------|
F|--------------------------|
C|-5----------4----------3--|
G|-5----------4----------3--|
C|-5----------4----------3--|

Chorus 2

  GTR I
d|--------------------------------------------------------------|
A|--------------------------------------------------------------|
F|--------------------------------------------------------------|
C|-3-4-5-0-3-4-5-0---0-3-5-5-3-3--3-4-5-0-3-4-5-0---0-3-5-x-x-x-|
G|-3-4-5-0-3-4-5-0---0-3-5-5-3-3--3-4-5-0-3-4-5-0---0-3-5-x-x-x-|
C|-3-4-5-0-3-4-5-0---0-3-5-5-3-3--3-4-5-0-3-4-5-0---0-3-5-x-x-x-|
 |
 |GTR II
d|--------------------------------------------------------------|
A|--------------------------------------------------------------|
F|--------------------------------------------------------------|
C|-3-4-5-0-3-4-5-0---0-3-5-5-3-3--3-4-5-0-3-4-5-0---0-3-5-x-x-x-|
G|--------------------------------------------------------x-x-x-|
C|--------------------------------------------------------x-x-x-|
 |
 |GTR III
d|--------------------------------------------------------------|
A|--------------------------------------------------------------|
F|--------------------------------------------------------------|
C|-3-4-5-0-3-4-5-0---0-3-5-5-3-3--3-4-5-0-3-4-5-0---0-3-5-x-x-x-|
G|-3-4-5-0-3-4-5-0---0-3-5-5-3-3--3-4-5-0-3-4-5-0---0-3-5-x-x-x-|
C|-3-4-5-0-3-4-5-0---0-3-5-5-3-3--3-4-5-0-3-4-5-0---0-3-5-x-x-x-|

  GTR I
d|--------------------------------------------------------------|
A|--------------------------------------------------------------|
F|--------------------------------------------------------------|
C|-3-4-5-0-3-4-5-0---0-3-5-5-3-3--3-4-5-0-3-4-5-0---0-3-5-5-3-3-|
G|-3-4-5-0-3-4-5-0---0-3-5-5-3-3--3-4-5-0-3-4-5-0---0-3-5-5-3-3-|
C|-3-4-5-0-3-4-5-0---0-3-5-5-3-3--3-4-5-0-3-4-5-0---0-3-5-5-3-3-|
 |
 |GTR II
d|--------------------------------------------------------------|
A|--------------------------------------------------------------|
F|--------------------------------------------------------------|
C|-3-4-5-0-3-4-5-0---0-3-5-5-3-3--3-4-5-0-3-4-5-0---0-3-5-5-3-3-|
G|--------------------------------------------------------------|
C|--------------------------------------------------------------|
 |
 |GTR III
d|--------------------------------------------------------------|
A|--------------------------------------------------------------|
F|--------------------------------------------------------------|
C|-3-4-5-0-3-4-5-0---0-3-5-5-3-3--3-4-5-0-3-4-5-0---0-3-5-5-3-3-|
G|-3-4-5-0-3-4-5-0---0-3-5-5-3-3--3-4-5-0-3-4-5-0---0-3-5-5-3-3-|
C|-3-4-5-0-3-4-5-0---0-3-5-5-3-3--3-4-5-0-3-4-5-0---0-3-5-5-3-3-|

  GTR I
d|---------------------------------------------|
A|---------------------------------------------|
F|----------------------------------5----5-5-5-|
C|-5----5-5-5-4----4-4-4-3----3-3-3-5----5-5-5-|
G|-5----5-5-5-4----4-4-4-3----3-3-3-3----3-3-3-|
C|-5----5-5-5-4----4-4-4-3----3-3-3------------|
 |
 |GTR II (Dist. with Wah)
d|---------------------------------------------|
A|-3b---------4b---------6b--------------------|
F|---------------------------------------------|
C|---------------------------------------------|
G|---------------------------------------------|
C|---------------------------------------------|
 |
 |GTR III (Distortion)
d|---------------------------------------------|
A|---------------------------------------------|
F|----------------------------------5----------|
C|-5----------4----------3----------5----------|
G|-5----------4----------3----------3----------|
C|-5----------4----------3---------------------|

  GTR I
d|--------------------------|
A|--------------------------|
F|--------------------------|
C|-5----5-5-5-4----4-4-4-3--|
G|-5----5-5-5-4----4-4-4-3--|
C|-5----5-5-5-4----4-4-4-3--|
 |
 |GTR II (Dist. with Wah)
d|--------------------------|
A|-3b---------4b---------3--|
F|-----------------------2--|
C|-----------------------0--|
G|--------------------------|
C|--------------------------|
 |
 |GTR III (Distortion)
d|--------------------------|
A|--------------------------|
F|--------------------------|
C|-5----5-5-5-4----4-4-4-3--|
G|-5----5-5-5-4----4-4-4-3--|
C|-5----5-5-5-4----4-4-4-3--|

Solo

  GTR I
d|--------------------------------------------------------------|
A|--------------------------------------------------------------|
F|--------------------------------------------------------------|
C|-3-4-5-0-3-4-5-0---0-3-5-5-3-3--3-4-5-0-3-4-5-0---0-3-5-x-x-x-|
G|-3-4-5-0-3-4-5-0---0-3-5-5-3-3--3-4-5-0-3-4-5-0---0-3-5-x-x-x-|
C|-3-4-5-0-3-4-5-0---0-3-5-5-3-3--3-4-5-0-3-4-5-0---0-3-5-x-x-x-|
 |
 |GTR II (Dist. with Wah)
d|--------------------------------------------------------------|
A|-------6---8b--6---6-----6------------------------------------|
F|---5-7---7-------7---7-6---7~--7-7-5--------------------------|
C|-------------------------------------7-6-5-3-0-/-6-5-3~-------|
G|--------------------------------------------------------------|
C|--------------------------------------------------------------|
 |   . .   .
 |GTR III (Distortion)
d|--------------------------------------------------------------|
A|--------------------------------------------------------------|
F|--------------------------------------------------------------|
C|-3-4-5-0-3-4-5-0---0-3-5-5-3-3--3-4-5-0-3-4-5-0---0-3-5-x-x-x-|
G|-3-4-5-0-3-4-5-0---0-3-5-5-3-3--3-4-5-0-3-4-5-0---0-3-5-x-x-x-|
C|-3-4-5-0-3-4-5-0---0-3-5-5-3-3--3-4-5-0-3-4-5-0---0-3-5-x-x-x-|

  GTR I
d|--------------------------------------------------------------|
A|----------------------------------------------3---------------|
F|----------------------------------------------2---------------|
C|-3-4-5-0-3-4-5-0---0-3-5-5-3-3--3-4-5-0-3-4-0-0---------------|
G|-3-4-5-0-3-4-5-0---0-3-5-5-3-3--3-4-5-0-3-4-0-----------------|
C|-3-4-5-0-3-4-5-0---0-3-5-5-3-3--3-4-5-0-3-4-0-----------------|
 |
 |GTR II (Dist. with Wah)
d|-17br-15-17-18/20\18-17-15------------------------------------|
A|---------------------------18-17br-15-------------------------|
F|--------------------------------------17br-15-12b-------------|
C|--------------------------------------------------------------|
G|--------------------------------------------------------------|
C|--------------------------------------------------------------|
 |
 |GTR III (Distortion)
d|--------------------------------------------------------------|
A|----------------------------------------------3---------------|
F|----------------------------------------------2---------------|
C|-3-4-5-0-3-4-5-0---0-3-5-5-3-3--3-4-5-0-3-4-0-0---------------|
G|-3-4-5-0-3-4-5-0---0-3-5-5-3-3--3-4-5-0-3-4-0-----------------|
C|-3-4-5-0-3-4-5-0---0-3-5-5-3-3--3-4-5-0-3-4-0-----------------|

Chorus 3

  GTR I
d|--------------------------------------------------------------|
A|--------------------------------------------------------------|
F|--------------------------------------------------------------|
C|-3-4-5-0-3-4-5-0---0-3-5-5-3-3--3-4-5-0-3-4-5-0---0-3-5-x-x-x-|
G|-3-4-5-0-3-4-5-0---0-3-5-5-3-3--3-4-5-0-3-4-5-0---0-3-5-x-x-x-|
C|-3-4-5-0-3-4-5-0---0-3-5-5-3-3--3-4-5-0-3-4-5-0---0-3-5-x-x-x-|
 |
 |GTR II
d|--------------------------------------------------------------|
A|--------------------------------------------------------------|
F|--------------------------------------------------------------|
C|--------------------------------------------------------------|
G|--------------------------------------------------------------|
C|--------------------------------------------------------------|
 |
 |GTR III
d|--------------------------------------------------------------|
A|--------------------------------------------------------------|
F|--------------------------------------------------------------|
C|-3-4-5-0-3-4-5-0---0-3-5-5-3-3--3-4-5-0-3-4-5-0---0-3-5-x-x-x-|
G|-3-4-5-0-3-4-5-0---0-3-5-5-3-3--3-4-5-0-3-4-5-0---0-3-5-x-x-x-|
C|-3-4-5-0-3-4-5-0---0-3-5-5-3-3--3-4-5-0-3-4-5-0---0-3-5-x-x-x-|

  GTR I
d|--------------------------------------------------------------|
A|--------------------------------------------------------------|
F|--------------------------------------------------------------|
C|-3-4-5-0-3-4-5-0---0-3-5-5-3-3--3-4-5-0-3-4-5-0---0-3-5-5-3-3-|
G|-3-4-5-0-3-4-5-0---0-3-5-5-3-3--3-4-5-0-3-4-5-0---0-3-5-5-3-3-|
C|-3-4-5-0-3-4-5-0---0-3-5-5-3-3--3-4-5-0-3-4-5-0---0-3-5-5-3-3-|
 |
 |GTR II
d|-------------------------------------------------------fbk----|
A|-------------------------------------------------------fbk----|
F|-------------------------------------------------------fbk----|
C|-------------------------------------------------------fbk----|
G|-------------------------------------------------------fbk----|
C|-------------------------------------------------------fbk----|
 |
 |GTR III
d|--------------------------------------------------------------|
A|--------------------------------------------------------------|
F|--------------------------------------------------------------|
C|-3-4-5-0-3-4-5-0---0-3-5-5-3-3--3-4-5-0-3-4-5-0---0-3-5-5-3-3-|
G|-3-4-5-0-3-4-5-0---0-3-5-5-3-3--3-4-5-0-3-4-5-0---0-3-5-5-3-3-|
C|-3-4-5-0-3-4-5-0---0-3-5-5-3-3--3-4-5-0-3-4-5-0---0-3-5-5-3-3-|

  GTR I
d|--------------------------------------------------------------|
A|--------------------------------------------------------------|
F|--------------------------------------------------------------|
C|-3-4-5-0-3-4-5-0---0-3-5-5-3-3--3-4-5-0-3-4-5-0---0-3-5-5-3-3-|
G|-3-4-5-0-3-4-5-0---0-3-5-5-3-3--3-4-5-0-3-4-5-0---0-3-5-5-3-3-|
C|-3-4-5-0-3-4-5-0---0-3-5-5-3-3--3-4-5-0-3-4-5-0---0-3-5-5-3-3-|
 |
 |GTR II
d|--------------------------------------------------------------|
A|--------------------------------------------------------------|
F|--------------------------------------------------------------|
C|-3-4-5-0-3-4-5-0---0-3-5-5-3-3--3-4-5-0-3-4-5-0---0-3-5-5-3-3-|
G|--------------------------------------------------------------|
C|--------------------------------------------------------------|
 |
 |GTR III
d|--------------------------------------------------------------|
A|--------------------------------------------------------------|
F|--------------------------------------------------------------|
C|-3-4-5-0-3-4-5-0---0-3-5-5-3-3--3-4-5-0-3-4-5-0---0-3-5-5-3-3-|
G|-3-4-5-0-3-4-5-0---0-3-5-5-3-3--3-4-5-0-3-4-5-0---0-3-5-5-3-3-|
C|-3-4-5-0-3-4-5-0---0-3-5-5-3-3--3-4-5-0-3-4-5-0---0-3-5-5-3-3-|

  GTR I
d|--------------------------------------------------------------|
A|--------------------------------------------------------------|
F|------------------------------------------------------5-5-5-5-|
C|-3-4-5-0-3-4-5-0---0-3-5-5-3-3--3-4-5-0-3-4-5-0---0-305-5-5-5-|
G|-3-4-5-0-3-4-5-0---0-3-5-5-3-3--3-4-5-0-3-4-5-0---0-303-3-3-3-|
C|-3-4-5-0-3-4-5-0---0-3-5-5-3-3--3-4-5-0-3-4-5-0---0-30--------|
 |
 |GTR II
d|--------------------------------------------------------------|
A|--------------------------------------------------------------|
F|------------------------------------------------------5-5-5-5-|
C|-3-4-5-0-3-4-5-0---0-3-5-5-3-3--3-4-5-0-3-4-5-0---0-305-5-5-5-|
G|------------------------------------------------------3-3-3-3-|
C|--------------------------------------------------------------|
 |
 |GTR III
d|--------------------------------------------------------------|
A|--------------------------------------------------------------|
F|------------------------------------------------------5-5-5-5-|
C|-3-4-5-0-3-4-5-0---0-3-5-5-3-3--3-4-5-0-3-4-5-0---0-305-5-5-5-|
G|-3-4-5-0-3-4-5-0---0-3-5-5-3-3--3-4-5-0-3-4-5-0---0-303-3-3-3-|
C|-3-4-5-0-3-4-5-0---0-3-5-5-3-3--3-4-5-0-3-4-5-0---0-30--------|

  GTR I
d|--------------------------|
A|--------------------------|
F|-4------------------------|
C|-5------------------------|
G|-2------------------------|
C|--------------------------|
 |
 |GTR II (Distortion)
d|--------------------------|
A|--------------------------|
F|-4------------------------|
C|-5------------------------|
G|-2------------------------|
C|--------------------------|
 |
 |GTR III (Distortion)
d|--------------------------|
A|--------------------------|
F|-4------------------------|
C|-5------------------------|
G|-2------------------------|
C|--------------------------|

|fbk feedback
| b  bend
| r  release bend
| .  palm mute
| /  slide up
| \  slide down
| h  hammer-on
| p  pull-off
| ~  vibrato
| +  harmonic
| x  Mute note
===============================================================================
Tap to rate this tab
# A B C D E F G H I J K L M N O P Q R S T U V W X Y Z