Song name
# A B C D E F G H I J K L M N O P Q R S T U V W X Y Z

Theory Of A Deadman - Hating Hollywood tab

Hating Hollywood
Theory of A Deadman
Gasoline (2005)

Hating Hollywood:  written by Tyler Connolly, Dean Back, and Dave Brenner

GTR I - Drop C Tuning (d,A,F,C,G,C)
GTR II - Drop C Tuning (d,A,F,C,G,C)
GTR III - Drop C Tuning (d,A,F,C,G,C)

Intro

  GTR I
d|-------------------------------------------------|
A|-------------------------------------------------|
F|-------------------------------------------------|
C|-------------------------------------------------|
G|-------------------------------------------------|
C|-------------------------------------------------|
 |
 |GTR II
d|-------------------------------------------------|
A|-------------------------------------------------|
F|-------------------------------------------------|
C|-------------------------------------------------|
G|-------------------------------------------------|
C|-------------------------------------------------|
 |
 |GTR III (Distortion)
d|-------------------------------------------------|
A|-------------------------------------------------|
F|-------------------------------------------------|
C|--2----------------------------------------------|
G|-------------------------------------------------|
C|-------------------------------------------------|

  GTR I (Distortion)
d|-------------------------------------------------|
A|-------------------------------------------------|
F|--7h-9--9p-7-----------7--7h-9--9p-7-------------|
C|--------------------------------------5/-7--7\-5-|
G|--------------7--7--5----------------------------|
C|-------------------------------------------------|
 |
 |GTR II 
d|-------------------------------------------------|
A|-------------------------------------------------|
F|-------------------------------------------------|
C|-------------------------------------------------|
G|-------------------------------------------------|
C|-------------------------------------------------|
 |
 |GTR III
d|-------------------------------------------------|
A|-------------------------------------------------|
F|-------------------------------------------------|
C|-(2)---------------------------------------------|
G|-------------------------------------------------|
C|-------------------------------------------------|

  GTR I
d|-------------------------------------------------|
A|-------------------------------------------------|
F|--7h-9--9p-7-----------7--7h-9--9p-7-------------|
C|--------------------------------------5/-7--7\-5-|
G|--------------7--7--5----------------------------|
C|-------------------------------------------------|
 |
 |GTR II
d|-------------------------------------------------|
A|-------------------------------------------------|
F|-------------------------------------------------|
C|-------------------------------------------------|
G|-------------------------------------------------|
C|-------------------------------------------------|
 |
 |GTR III
d|-------------------------------------------------|
A|-/3h-5--5p-3-----------3--3h-5--5p-3-------------|
F|--------------------------------------0h-2--2p-0-|
C|--------------2--2--0----------------------------|
G|-------------------------------------------------|
C|-------------------------------------------------|

  GTR I
d|-------------------------------------------------|
A|-------------------------------------------------|
F|--7h-9--9p-7-----------7--7h-9--9p-7-------------|
C|--------------------------------------5/-7--7\-5-|
G|--------------7--7--5----------------------------|
C|-------------------------------------------------|
 |
 |GTR II (Distortion)
d|-------------------------------------------------|
A|-------------------------------------------------|
F|-------------------------------------------------|
C|--4--6--6--4--6--6--4--6--6--4--6--6--4--6--6--6-|
G|--5--7--7--5--7--7--5--7--7--5--7--7--5--7--7--7-|
C|-------------------------------------------------|
 |  .  .  .  .  .  .  .  .  .  .  .  .  .  .  .  .
 |GTR III 
d|-------------------------------------------------|
A|-/3h-5--5p-3-----------3--3h-5--5p-3-------------|
F|--------------------------------------0h-2--2p-0-|
C|--------------2--2--0----------------------------|
G|-------------------------------------------------|
C|-------------------------------------------------|

  GTR I
d|-------------------------------------------------|
A|-------------------------------------------------|
F|--7h-9--9p-7-----------7--7h-9--9p-7-------------|
C|--------------------------------------5/-2--0--2-|
G|--------------7--7--5--------------------2--0--2-|
C|-----------------------------------------2--0--2-|
 |
 |GTR II
d|-------------------------------------------------|
A|-------------------------------------------------|
F|-------------------------------------------------|
C|--4--6--6--4--6--6--4--6--6--4--6--6--4--2--0--2-|
G|--5--7--7--5--7--7--5--7--7--5--7--7--5--2--0--2-|
C|-----------------------------------------2--0--2-|
 |  .  .  .  .  .  .  .  .  .  .  .  .  .         
 |GTR III
d|-------------------------------------------------|
A|-/3h-5--5p-3-----------3--3h-5--5p-3-------------|
F|--------------------------------------0--x-------|
C|--------------2--2--0----------------------------|
G|-------------------------------------------------|
C|-------------------------------------------------|

Pre Verse

  GTR I
d|-------------------------------------------------|
A|-------------------------------------------------|
F|-------------------------------------------------|
C|--2--0--5--2--------2--0--5--2--------2--0--2----|
G|--2--0--5--2--------2--0--5--2--------2--0--2----|
C|--2--0--5--2--------2--0--5--2--------2--0--2----|
 |
 |GTR II
d|-------------------------------------------------|
A|-------------------------------------------------|
F|-------------------------------------------------|
C|--2--0--5--2--------2--0--5--2--------2--0--2----|
G|--2--0--5--2--------2--0--5--2--------2--0--2----|
C|--2--0--5--2--------2--0--5--2--------2--0--2----|
 |
 |GTR III
d|-------------------------------------------------|
A|-------------------------------------------------|
F|-------------------------------------------------|
C|-------------------------------------------------|
G|-------------------------------------------------|
C|-------------------------------------------------|

  GTR I
d|-------------------------------------------------|
A|-------------------------------------------------|
F|-------------------------------------------------|
C|--2--0--5--2--------2--0--5--2--------2--0--2----|
G|--2--0--5--2--------2--0--5--2--------2--0--2----|
C|--2--0--5--2--------2--0--5--2--------2--0--2----|
 |
 |GTR II
d|-------------------------------------------------|
A|-------------------------------------------------|
F|-------------------------------------------------|
C|--2--0--5--2--------2--0--5--2--------2--0--2----|
G|--2--0--5--2--------2--0--5--2--------2--0--2----|
C|--2--0--5--2--------2--0--5--2--------2--0--2----|
 |
 |GTR III
d|-------------------------------------------------|
A|-------------------------------------------------|
F|-------------------------------------------------|
C|-------------------------------------------------|
G|-------------------------------------------------|
C|-------------------------------------------------|

  GTR I
d|-------------------------------------------------|
A|-------------------------------------------------|
F|-------------------------------------------------|
C|--2--0--5--2--------2--0--5--2--------2--0--2----|
G|--2--0--5--2--------2--0--5--2--------2--0--2----|
C|--2--0--5--2--------2--0--5--2--------2--0--2----|
 |
 |GTR II
d|-------------------------------------------------|
A|-------------------------------------------------|
F|-------------------------------------------------|
C|--2--0--5--2--------2--0--5--2--------2--0--2----|
G|--2--0--5--2--------2--0--5--2--------2--0--2----|
C|--2--0--5--2--------2--0--5--2--------2--0--2----|
 |
 |GTR III (Dist. with Wah)
d|-------------------------------------------------|
A|-------------------------------------------------|
F|-------------------------------------------------|
C|--2--0--5--2--------2--0--5--2--------2--0--2----|
G|--2--0--5--2--------2--0--5--2--------2--0--2----|
C|--2--0--5--2--------2--0--5--2--------2--0--2----|

  GTR I 
d|-------------------------------------------------|
A|-------------------------------------------------|
F|-------------------------------------------------|
C|--2--0--5--2--------2--0--5--2--------2--0--2----|
G|--2--0--5--2--------2--0--5--2--------2--0--2----|
C|--2--0--5--2--------2--0--5--2--------2--0--2----|
 |
 |GTR II
d|-------------------------------------------------|
A|-------------------------------------------------|
F|-------------------------------------------------|
C|--2--0--5--2--------2--0--5--2--------2--0--2----|
G|--2--0--5--2--------2--0--5--2--------2--0--2----|
C|--2--0--5--2--------2--0--5--2--------2--0--2----|
 |
 |GTR III
d|-------------------------------------------------|
A|-------------------------------------------------|
F|-------------------------------------------------|
C|--2--0--5--2--------2--0--5--2--------2--0--2----|
G|--2--0--5--2--------2--0--5--2--------2--0--2----|
C|--2--0--5--2--------2--0--5--2--------2--0--2----|

Verse

  GTR I
d|-------------------------------------------------|
A|-------------------------------------------------|
F|-------------------------------------------------|
C|--7--9--9--7--9-----7--9-----7--9-----7--9-------|
G|--5--7--7--5--7-----5--7-----5--7-----5--7-------|
C|-------------------------------------------------|
 |  .  .  .  .  .     .  .     .  .     .  .
 |GTR II
d|-------------------------------------------------|
A|-------------------------------------------------|
F|-------------------------------------------------|
C|--0--2--2--0--2-----0--2-----0--2-----0--2-------|
G|--0--2--2--0--2-----0--2-----0--2-----0--2-------|
C|--0--2--2--0--2-----0--2-----0--2-----0--2-------|
    .  .  .  .  .     .  .     .  .     .  .

  GTR I
d|-------------------------------------------------|
A|-------------------------------------------------|
F|-------------------------------------------------|
C|--7--9--9--7--9-----7--9-----7--5----------------|
G|--5--7--7--5--7-----5--7-----5--5----------------|
C|--------------------------------5----------------|
 |  .  .  .  .  .     .  .     .            
 |GTR II
d|-------------------------------------------------|
A|-------------------------------------------------|
F|-------------------------------------------------|
C|--0--2--2--0--2-----0--2-----0--5----------------|
G|--0--2--2--0--2-----0--2-----0--5----------------|
C|--0--2--2--0--2-----0--2-----0--5~---------------|
    .  .  .  .  .     .  .     .            

  GTR I
d|-------------------------------------------------|
A|-------------------------------------------------|
F|-------------------------------------------------|
C|--7--9--9--7--9-----7--9-----7--9-----7--9-------|
G|--5--7--7--5--7-----5--7-----5--7-----5--7-------|
C|-------------------------------------------------|
 |  .  .  .  .  .     .  .     .  .     .  .
 |GTR II
d|-------------------------------------------------|
A|-------------------------------------------------|
F|-------------------------------------------------|
C|--0--2--2--0--2-----0--2-----0--2-----0--2-------|
G|--0--2--2--0--2-----0--2-----0--2-----0--2-------|
C|--0--2--2--0--2-----0--2-----0--2-----0--2-------|
    .  .  .  .  .     .  .     .  .     .  .

  GTR I
d|-------------------------------------------------|
A|-------------------------------------------------|
F|-------------------------------------------------|
C|--7--9--9--7--9-----7--9-----7--9-----x--9--7--9-|
G|--5--7--7--5--7-----5--7-----5--7-----x--7--5--7-|
C|--------------------------------------x----------|
 |  .  .  .  .  .     .  .     .  .         
 |GTR II
d|-------------------------------------------------|
A|-------------------------------------------------|
F|-------------------------------------------------|
C|--0--2--2--0--2-----0--2-----0--2-----x--2--0--2-|
G|--0--2--2--0--2-----0--2-----0--2-----x--2--0--2-|
C|--0--2--2--0--2-----0--2-----0--2-----x--2--0--2-|
    .  .  .  .  .     .  .     .  .         

Pre Chorus

  GTR I
d|-------------------------------------------------|
A|-------------------------------------------------|
F|-------------------------------------------------|
C|--0--2-----0--2-----0--2-----0--2-----0--2-------|
G|--0--2-----0--2-----0--2-----0--2-----0--2-------|
C|--0--2-----0--2-----0--2-----0--2-----0--2-------|
 |
 |GTR II
d|-------------------------------------------------|
A|-------------------------------------------------|
F|-------------------------------------------------|
C|--0--2-----0--2-----0--2-----0--2-----0--2-------|
G|--0--2-----0--2-----0--2-----0--2-----0--2-------|
C|--0--2-----0--2-----0--2-----0--2-----0--2-------|
 |
 |GTR III (Clean)
d|-------------------------------------------------|
A|--9-10-----9-10-----9-10-----9-12-----9-12-------|
F|-------------------------------------------------|
C|-------------------------------------------------|
G|-------------------------------------------------|
C|-------------------------------------------------|

  GTR I
d|-------------------------------------------------|
A|-------------------------------------------------|
F|-------------------------------------------------|
C|--0--2-----0--2-----0--2-----0--5----------------|
G|--0--2-----0--2-----0--2-----0--5----------------|
C|--0--2-----0--2-----0--2-----0--5~---------------|
 |
 |GTR II
d|-------------------------------------------------|
A|-------------------------------------------------|
F|-------------------------------------------------|
C|--0--2-----0--2-----0--2-----0--5----------------|
G|--0--2-----0--2-----0--2-----0--5----------------|
C|--0--2-----0--2-----0--2-----0--5~---------------|
 |
 |GTR III
d|-------------------------------10----------------|
A|--9-10-----9-10-----9-10-----9-------------------|
F|-------------------------------------------------|
C|-------------------------------------------------|
G|-------------------------------------------------|
C|-------------------------------------------------|

  GTR I
d|-------------------------------------------------|
A|-------------------------------------------------|
F|-------------------------------------------------|
C|--0--2-----0--2-----0--2-----0--2-----0--2-------|
G|--0--2-----0--2-----0--2-----0--2-----0--2-------|
C|--0--2-----0--2-----0--2-----0--2-----0--2-------|
 |
 |GTR II
d|-------------------------------------------------|
A|-------------------------------------------------|
F|-------------------------------------------------|
C|--0--2-----0--2-----0--2-----0--2-----0--2-------|
G|--0--2-----0--2-----0--2-----0--2-----0--2-------|
C|--0--2-----0--2-----0--2-----0--2-----0--2-------|
 |
 |GTR III
d|-------------------------------------------------|
A|--9-10-----9-10-----9-10-----9-12-----9-12-------|
F|-------------------------------------------------|
C|-------------------------------------------------|
G|-------------------------------------------------|
C|-------------------------------------------------|

  GTR I
d|-------------------------------------------------|
A|-------------------------------------------------|
F|-------------------------------------------------|
C|--0--2-----0--2-----0--2----/9--7--5--7--5--2----|
G|--0--2-----0--2-----0--2----/9--7--5--7--5--2----|
C|--0--2-----0--2-----0--2----/9--7--5--7--5--2----|
 |
 |GTR II
d|-------------------------------------------------|
A|-------------------------------------------------|
F|-------------------------------------------------|
C|--0--2-----0--2-----0--2----/9--7--5--7--5--2----|
G|--0--2-----0--2-----0--2----/9--7--5--7--5--2----|
C|--0--2-----0--2-----0--2----/9--7--5--7--5--2----|
 |
 |GTR III
d|-------------------------------------------------|
A|--9-10-----9-10-----9-10\------------------------|
F|-------------------------------------------------|
C|-------------------------------------------------|
G|-------------------------------------------------|
C|-------------------------------------------------|

Chorus

  GTR I
d|-------------------------------------------------|
A|-------------------------------------------------|
F|--7--9--9--7--9-----7--9-----7--9-----7--9--9----|
C|--7--9--9--7--9-----7--9-----7--9-----7--9--9----|
G|--5--7--7--5--7-----5--7-----5--7-----5--7--7----|
C|-------------------------------------------------|
 |
 |GTR II
d|-------------------------------------------------|
A|-------------------------------------------------|
F|--7--9--9--7--9-----7--9-----7--9-----7--9--9----|
C|--7--9--9--7--9-----7--9-----7--9-----7--9--9----|
G|--5--7--7--5--7-----5--7-----5--7-----5--7--7----|
C|-------------------------------------------------|

  GTR I
d|-------------------------------------------------|
A|-------------------------------------------------|
F|--7--9--9--7--9-----7--9-------------------------|
C|--7--9--9--7--9-----7--9----/9--7--5--7--5--2----|
G|--5--7--7--5--7-----5--7----/9--7--5--7--5--2----|
C|----------------------------/9--7--5--7--5--2----|
 |
 |GTR II
d|-------------------------------------------------|
A|-------------------------------------------------|
F|--7--9--9--7--9-----7--9-------------------------|
C|--7--9--9--7--9-----7--9----/9--7--5--7--5--2----|
G|--5--7--7--5--7-----5--7----/9--7--5--7--5--2----|
C|----------------------------/9--7--5--7--5--2----|

  GTR I
d|-------------------------------------------------|
A|-------------------------------------------------|
F|--7--9--9--7--9-----7--9-----7--9-----7--9--9----|
C|--7--9--9--7--9-----7--9-----7--9-----7--9--9----|
G|--5--7--7--5--7-----5--7-----5--7-----5--7--7----|
C|-------------------------------------------------|
 |
 |GTR II
d|-------------------------------------------------|
A|-------------------------------------------------|
F|--7--9--9--7--9-----7--9-----7--9-----7--9--9----|
C|--7--9--9--7--9-----7--9-----7--9-----7--9--9----|
G|--5--7--7--5--7-----5--7-----5--7-----5--7--7----|
C|-------------------------------------------------|

  GTR I
d|-------------------------------------------------|
A|-------------------------------------------------|
F|--7--9--9--7--9-----7--9-----7--9-----7--9--9--7-|
C|--7--9--9--7--9-----7--9-----7--9-----7--9--9--7-|
G|--5--7--7--5--7-----5--7-----5--7-----5--7--7--5-|
C|-------------------------------------------------|
 |
 |GTR II
d|-------------------------------------------------|
A|-------------------------------------------------|
F|--7--9--9--7--9-----7--9-----7--9-----7--9--9--7-|
C|--7--9--9--7--9-----7--9-----7--9-----7--9--9--7-|
G|--5--7--7--5--7-----5--7-----5--7-----5--7--7--5-|
C|-------------------------------------------------|

Verse

  GTR I
d|-------------------------------------------------|
A|-------------------------------------------------|
F|-------------------------------------------------|
C|--7--9--9--7--9-----7--9-----7--9-----7--9-------|
G|--5--7--7--5--7-----5--7-----5--7-----5--7-------|
C|-------------------------------------------------|
 |  .  .  .  .  .     .  .     .  .     .  .
 |GTR II
d|-------------------------------------------------|
A|-------------------------------------------------|
F|-------------------------------------------------|
C|--0--2--2--0--2-----0--2-----0--2-----0--2-------|
G|--0--2--2--0--2-----0--2-----0--2-----0--2-------|
C|--0--2--2--0--2-----0--2-----0--2-----0--2-------|
    .  .  .  .  .     .  .     .  .     .  .

  GTR I
d|-------------------------------------------------|
A|-------------------------------------------------|
F|-------------------------------------------------|
C|--7--9--9--7--9-----7--9-----7--5----------------|
G|--5--7--7--5--7-----5--7-----5--5----------------|
C|--------------------------------5----------------|
 |  .  .  .  .  .     .  .     .            
 |GTR II
d|-------------------------------------------------|
A|-------------------------------------------------|
F|-------------------------------------------------|
C|--0--2--2--0--2-----0--2-----0--5----------------|
G|--0--2--2--0--2-----0--2-----0--5----------------|
C|--0--2--2--0--2-----0--2-----0--5~---------------|
    .  .  .  .  .     .  .     .            

  GTR I
d|-------------------------------------------------|
A|-------------------------------------------------|
F|-------------------------------------------------|
C|--7--9--9--7--9-----7--9-----7--9-----7--9-------|
G|--5--7--7--5--7-----5--7-----5--7-----5--7-------|
C|-------------------------------------------------|
 |  .  .  .  .  .     .  .     .  .     .  .
 |GTR II
d|-------------------------------------------------|
A|-------------------------------------------------|
F|-------------------------------------------------|
C|--0--2--2--0--2-----0--2-----0--2-----0--2-------|
G|--0--2--2--0--2-----0--2-----0--2-----0--2-------|
C|--0--2--2--0--2-----0--2-----0--2-----0--2-------|
    .  .  .  .  .     .  .     .  .     .  .

  GTR I
d|-------------------------------------------------|
A|-------------------------------------------------|
F|-------------------------------------------------|
C|--7--9--9--7--9-----7--9-----7--9-----x--9--7--9-|
G|--5--7--7--5--7-----5--7-----5--7-----x--7--5--7-|
C|--------------------------------------x----------|
 |  .  .  .  .  .     .  .     .  .         
 |GTR II
d|-------------------------------------------------|
A|-------------------------------------------------|
F|-------------------------------------------------|
C|--0--2--2--0--2-----0--2-----0--2-----x--2--0--2-|
G|--0--2--2--0--2-----0--2-----0--2-----x--2--0--2-|
C|--0--2--2--0--2-----0--2-----0--2-----x--2--0--2-|
    .  .  .  .  .     .  .     .  .         

Pre Chorus

  GTR I
d|-------------------------------------------------|
A|-------------------------------------------------|
F|-------------------------------------------------|
C|--0--2-----0--2-----0--2-----0--2-----0--2-------|
G|--0--2-----0--2-----0--2-----0--2-----0--2-------|
C|--0--2-----0--2-----0--2-----0--2-----0--2-------|
 |
 |GTR II
d|-------------------------------------------------|
A|-------------------------------------------------|
F|-------------------------------------------------|
C|--0--2-----0--2-----0--2-----0--2-----0--2-------|
G|--0--2-----0--2-----0--2-----0--2-----0--2-------|
C|--0--2-----0--2-----0--2-----0--2-----0--2-------|
 |
 |GTR III (Clean)
d|-------------------------------------------------|
A|--9-10-----9-10-----9-10-----9-12-----9-12-------|
F|-------------------------------------------------|
C|-------------------------------------------------|
G|-------------------------------------------------|
C|-------------------------------------------------|

  GTR I
d|-------------------------------------------------|
A|-------------------------------------------------|
F|-------------------------------------------------|
C|--0--2-----0--2-----0--2-----0--5----------------|
G|--0--2-----0--2-----0--2-----0--5----------------|
C|--0--2-----0--2-----0--2-----0--5~---------------|
 |
 |GTR II
d|-------------------------------------------------|
A|-------------------------------------------------|
F|-------------------------------------------------|
C|--0--2-----0--2-----0--2-----0--5----------------|
G|--0--2-----0--2-----0--2-----0--5----------------|
C|--0--2-----0--2-----0--2-----0--5~---------------|
 |
 |GTR III
d|-------------------------------10----------------|
A|--9-10-----9-10-----9-10-----9-------------------|
F|-------------------------------------------------|
C|-------------------------------------------------|
G|-------------------------------------------------|
C|-------------------------------------------------|

  GTR I
d|-------------------------------------------------|
A|-------------------------------------------------|
F|-------------------------------------------------|
C|--0--2-----0--2-----0--2-----0--2-----0--2-------|
G|--0--2-----0--2-----0--2-----0--2-----0--2-------|
C|--0--2-----0--2-----0--2-----0--2-----0--2-------|
 |
 |GTR II
d|-------------------------------------------------|
A|-------------------------------------------------|
F|-------------------------------------------------|
C|--0--2-----0--2-----0--2-----0--2-----0--2-------|
G|--0--2-----0--2-----0--2-----0--2-----0--2-------|
C|--0--2-----0--2-----0--2-----0--2-----0--2-------|
 |
 |GTR III
d|-------------------------------------------------|
A|--9-10-----9-10-----9-10-----9-12-----9-12-------|
F|-------------------------------------------------|
C|-------------------------------------------------|
G|-------------------------------------------------|
C|-------------------------------------------------|

  GTR I
d|-------------------------------------------------|
A|-------------------------------------------------|
F|-------------------------------------------------|
C|--0--2-----0--2-----0--2----/9--7--5--7--5--2----|
G|--0--2-----0--2-----0--2----/9--7--5--7--5--2----|
C|--0--2-----0--2-----0--2----/9--7--5--7--5--2----|
 |
 |GTR II
d|-------------------------------------------------|
A|-------------------------------------------------|
F|-------------------------------------------------|
C|--0--2-----0--2-----0--2----/9--7--5--7--5--2----|
G|--0--2-----0--2-----0--2----/9--7--5--7--5--2----|
C|--0--2-----0--2-----0--2----/9--7--5--7--5--2----|
 |
 |GTR III
d|-------------------------------------------------|
A|--9-10-----9-10-----9-10\------------------------|
F|-------------------------------------------------|
C|-------------------------------------------------|
G|-------------------------------------------------|
C|-------------------------------------------------|

Chorus

  GTR I
d|-------------------------------------------------|
A|-------------------------------------------------|
F|--7--9--9--7--9-----7--9-----7--9-----7--9--9----|
C|--7--9--9--7--9-----7--9-----7--9-----7--9--9----|
G|--5--7--7--5--7-----5--7-----5--7-----5--7--7----|
C|-------------------------------------------------|
 |
 |GTR II
d|-------------------------------------------------|
A|-------------------------------------------------|
F|--7--9--9--7--9-----7--9-----7--9-----7--9--9----|
C|--7--9--9--7--9-----7--9-----7--9-----7--9--9----|
G|--5--7--7--5--7-----5--7-----5--7-----5--7--7----|
C|-------------------------------------------------|

  GTR I
d|-------------------------------------------------|
A|-------------------------------------------------|
F|--7--9--9--7--9-----7--9-------------------------|
C|--7--9--9--7--9-----7--9----/9--7--5--7--5--2----|
G|--5--7--7--5--7-----5--7----/9--7--5--7--5--2----|
C|----------------------------/9--7--5--7--5--2----|
 |
 |GTR II
d|-------------------------------------------------|
A|-------------------------------------------------|
F|--7--9--9--7--9-----7--9-------------------------|
C|--7--9--9--7--9-----7--9----/9--7--5--7--5--2----|
G|--5--7--7--5--7-----5--7----/9--7--5--7--5--2----|
C|----------------------------/9--7--5--7--5--2----|

  GTR I
d|-------------------------------------------------|
A|-------------------------------------------------|
F|--7--9--9--7--9-----7--9-----7--9-----7--9--9----|
C|--7--9--9--7--9-----7--9-----7--9-----7--9--9----|
G|--5--7--7--5--7-----5--7-----5--7-----5--7--7----|
C|-------------------------------------------------|
 |
 |GTR II
d|-------------------------------------------------|
A|-------------------------------------------------|
F|--7--9--9--7--9-----7--9-----7--9-----7--9--9----|
C|--7--9--9--7--9-----7--9-----7--9-----7--9--9----|
G|--5--7--7--5--7-----5--7-----5--7-----5--7--7----|
C|-------------------------------------------------|

  GTR I
d|-------------------------------------------------|
A|-------------------------------------------------|
F|--7--9--9--7--9-----7--9-----7--9-----7--9--9--7-|
C|--7--9--9--7--9-----7--9-----7--9-----7--9--9--7-|
G|--5--7--7--5--7-----5--7-----5--7-----5--7--7--5-|
C|-------------------------------------------------|
 |
 |GTR II
d|-------------------------------------------------|
A|-------------------------------------------------|
F|--7--9--9--7--9-----7--9-----7--9-----7--9--9--7-|
C|--7--9--9--7--9-----7--9-----7--9-----7--9--9--7-|
G|--5--7--7--5--7-----5--7-----5--7-----5--7--7--5-|
C|-------------------------------------------------|

Bridge

  GTR I
d|-------------------------------------------------|
A|-------------------------------------------------|
F|--7h-9--9p-7-----------7--7h-9--9p-7-------------|
C|--------------------------------------5/-7--7\-5-|
G|--------------7--7--5----------------------------|
C|-------------------------------------------------|
 |
 |GTR II 
d|-------------------------------------------------|
A|-------------------------------------------------|
F|-------------------------------------------------|
C|-------------------------------------------------|
G|-------------------------------------------------|
C|-------------------------------------------------|
 |
 |GTR III
d|-------------------------------------------------|
A|-------------------------------------------------|
F|-------------------------------------------------|
C|-------------------------------------------------|
G|-------------------------------------------------|
C|-------------------------------------------------|

  GTR I
d|-------------------------------------------------|
A|-------------------------------------------------|
F|--7h-9--9p-7-----------7--7h-9--9p-7-------------|
C|--------------------------------------5/-7--7\-5-|
G|--------------7--7--5----------------------------|
C|-------------------------------------------------|
 |
 |GTR II
d|-------------------------------------------------|
A|-------------------------------------------------|
F|-------------------------------------------------|
C|-------------------------------------------------|
G|-------------------------------------------------|
C|-------------------------------------------------|
 |
 |GTR III
d|-------------------------------------------------|
A|-------------------------------------------------|
F|-------------------------------------------------|
C|-------------------------------------------------|
G|-------------------------------------------------|
C|-------------------------------------------------|

  GTR I
d|-------------------------------------------------|
A|-------------------------------------------------|
F|--7h-9--9p-7-----------7--7h-9--9p-7-------------|
C|--------------------------------------5/-7--7\-5-|
G|--------------7--7--5----------------------------|
C|-------------------------------------------------|
 |
 |GTR II 
d|-------------------------------------------------|
A|-------------------------------------------------|
F|-------------------------------------------------|
C|--4--6--6--4--6--6--4--6--6--4--6--6--4--6--6--6-|
G|--5--7--7--5--7--7--5--7--7--5--7--7--5--7--7--7-|
C|-------------------------------------------------|
 |  .  .  .  .  .  .  .  .  .  .  .  .  .  .  .  .
 |GTR III 
d|-------------------------------------------------|
A|-------------------------------------------------|
F|-------------------------------------------------|
C|-------------------------------------------------|
G|-------------------------------------------------|
C|-------------------------------------------------|

  GTR I
d|-------------------------------------------------|
A|-------------------------------------------------|
F|--7h-9--9p-7-----------7--7h-9--9p-7-------------|
C|--------------------------------------5/-2--0--2-|
G|--------------7--7--5--------------------2--0--2-|
C|-----------------------------------------2--0--2-|
 |
 |GTR II
d|-------------------------------------------------|
A|-------------------------------------------------|
F|-------------------------------------------------|
C|--4--6--6--4--6--6--4--6--6--4--6--6--4--2--0--2-|
G|--5--7--7--5--7--7--5--7--7--5--7--7--5--2--0--2-|
C|-----------------------------------------2--0--2-|
 |  .  .  .  .  .  .  .  .  .  .  .  .  .         
 |GTR III
d|-------------------------------------------------|
A|-------------------------------------------------|
F|-------------------------------------------------|
C|-------------------------------------------------|
G|-------------------------------------------------|
C|-------------------------------------------------|

Solo

  GTR I 
d|-------------------------------------------------|
A|-------------------------------------------------|
F|-------------------------------------------------|
C|--2--0--5--2--------2--0--5--2--------2--0--2----|
G|--2--0--5--2--------2--0--5--2--------2--0--2----|
C|--2--0--5--2--------2--0--5--2--------2--0--2----|
 |
 |GTR II
d|-------------------------------------------------|
A|-------------------------------------------------|
F|-------------------------------------------------|
C|--2--0--5--2--------2--0--5--2--------2--0--2----|
G|--2--0--5--2--------2--0--5--2--------2--0--2----|
C|--2--0--5--2--------2--0--5--2--------2--0--2----|
 |
 |GTR III (Dist. with Wah)
d|-------------------------------------------------|
A|-------------------------------------------------|
F|-------------------------------------------------|
C|-12h14-14p12-14p12/16-12~---14-14-12-------------|
G|-------------------------------------14-13-12\---|
C|-------------------------------------------------|

  GTR I 
d|-------------------------------------------------|
A|-------------------------------------------------|
F|-------------------------------------------------|
C|--2--0--5--2--------2--0--5--2--------2--0--2----|
G|--2--0--5--2--------2--0--5--2--------2--0--2----|
C|--2--0--5--2--------2--0--5--2--------2--0--2----|
 |
 |GTR II
d|-------------------------------------------------|
A|-------------------------------------------------|
F|-------------------------------------------------|
C|--2--0--5--2--------2--0--5--2--------2--0--2----|
G|--2--0--5--2--------2--0--5--2--------2--0--2----|
C|--2--0--5--2--------2--0--5--2--------2--0--2----|
 |
 |GTR III
d|-------------------------------------------------|
A|-------------------------------------------------|
F|-------------------------------------------------|
C|/12h14-14p12-14p12/16-12~---14-14-12-------------|
G|-------------------------------------14-13-12\---|
C|-------------------------------------------------|

  GTR I
d|/10h12-12p10-12p10/14-10~---12-12-10-------------|
A|-------------------------------------12-11-10\---|
F|-------------------------------------------------|
C|-------------------------------------------------|
G|-------------------------------------------------|
C|-------------------------------------------------|
 |
 |GTR II
d|-------------------------------------------------|
A|-------------------------------------------------|
F|-------------------------------------------------|
C|--2--0--5--2--------2--0--5--2--------2--0--2----|
G|--2--0--5--2--------2--0--5--2--------2--0--2----|
C|--2--0--5--2--------2--0--5--2--------2--0--2----|
 |
 |GTR III
d|-------------------------------------------------|
A|-------------------------------------------------|
F|-------------------------------------------------|
C|/12h14-14p12-14p12/16-12~---14-14-12-------------|
G|-------------------------------------14-13-12\---|
C|-------------------------------------------------|

  GTR I 
d|-------------------------------------------------|
A|-------------------------------------------------|
F|-------------------------------------------------|
C|--2--0--5--2--2--2--2--0--5-/9--7--5--7--5--2----|
G|--2--0--5--2--2--2--2--0--5-/9--7--5--7--5--2----|
C|--2--0--5--2--2--2--2--0--5-/9--7--5--7--5--2----|
 |
 |GTR II
d|-------------------------------------------------|
A|-------------------------------------------------|
F|-------------------------------------------------|
C|--2--0--5--2--2--2--2--0--5-/9--7--5--7--5--2----|
G|--2--0--5--2--2--2--2--0--5-/9--7--5--7--5--2----|
C|--2--0--5--2--2--2--2--0--5-/9--7--5--7--5--2----|
 |
 |GTR III
d|-------------------------------------------------|
A|-------------------13----------------------------|
F|---------/12-------15b---------------------------|
C|/14\---------------------------------------------|
G|-------------------------------------------------|
C|-------------------------------------------------|

Chorus

  GTR I
d|-------------------------------------------------|
A|-------------------------------------------------|
F|--7--9--9--7--9-----7--9-----7--9-----7--9--9----|
C|--7--9--9--7--9-----7--9-----7--9-----7--9--9----|
G|--5--7--7--5--7-----5--7-----5--7-----5--7--7----|
C|-------------------------------------------------|
 |
 |GTR II
d|-------------------------------------------------|
A|-------------------------------------------------|
F|--7--9--9--7--9-----7--9-----7--9-----7--9--9----|
C|--7--9--9--7--9-----7--9-----7--9-----7--9--9----|
G|--5--7--7--5--7-----5--7-----5--7-----5--7--7----|
C|-------------------------------------------------|

  GTR I
d|-------------------------------------------------|
A|-------------------------------------------------|
F|--7--9--9--7--9-----7--9-------------------------|
C|--7--9--9--7--9-----7--9----/9--7--5--7--5--2----|
G|--5--7--7--5--7-----5--7----/9--7--5--7--5--2----|
C|----------------------------/9--7--5--7--5--2----|
 |
 |GTR II
d|-------------------------------------------------|
A|-------------------------------------------------|
F|--7--9--9--7--9-----7--9-------------------------|
C|--7--9--9--7--9-----7--9----/9--7--5--7--5--2----|
G|--5--7--7--5--7-----5--7----/9--7--5--7--5--2----|
C|----------------------------/9--7--5--7--5--2----|

  GTR I
d|-------------------------------------------------|
A|-------------------------------------------------|
F|--7--9--9--7--9-----7--9-----7--9-----7--9--9----|
C|--7--9--9--7--9-----7--9-----7--9-----7--9--9----|
G|--5--7--7--5--7-----5--7-----5--7-----5--7--7----|
C|-------------------------------------------------|
 |
 |GTR II
d|-------------------------------------------------|
A|-------------------------------------------------|
F|--7--9--9--7--9-----7--9-----7--9-----7--9--9----|
C|--7--9--9--7--9-----7--9-----7--9-----7--9--9----|
G|--5--7--7--5--7-----5--7-----5--7-----5--7--7----|
C|-------------------------------------------------|

  GTR I
d|-------------------------------------------------|
A|-------------------------------------------------|
F|--7--9--9--7--9-----7--9-------------------------|
C|--7--9--9--7--9-----7--9----/9--7--5--7--5--2----|
G|--5--7--7--5--7-----5--7----/9--7--5--7--5--2----|
C|----------------------------/9--7--5--7--5--2----|
 |
 |GTR II
d|-------------------------------------------------|
A|-------------------------------------------------|
F|--7--9--9--7--9-----7--9-------------------------|
C|--7--9--9--7--9-----7--9----/9--7--5--7--5--2----|
G|--5--7--7--5--7-----5--7----/9--7--5--7--5--2----|
C|----------------------------/9--7--5--7--5--2----|

  GTR I
d|-------------------------------------------------|
A|-------------------------------------------------|
F|--7--9--9--7--9-----7--9-----7--9-----7--9--9----|
C|--7--9--9--7--9-----7--9-----7--9-----7--9--9----|
G|--5--7--7--5--7-----5--7-----5--7-----5--7--7----|
C|-------------------------------------------------|
 |
 |GTR II
d|-------------------------------------------------|
A|-------------------------------------------------|
F|--7--9--9--7--9-----7--9-----7--9-----7--9--9----|
C|--7--9--9--7--9-----7--9-----7--9-----7--9--9----|
G|--5--7--7--5--7-----5--7-----5--7-----5--7--7----|
C|-------------------------------------------------|

  GTR I
d|-------------------------------------------------|
A|-------------------------------------------------|
F|--7--9--9--7--9-----7--9-------------------------|
C|--7--9--9--7--9-----7--9----/9--7--5--7--5--2----|
G|--5--7--7--5--7-----5--7----/9--7--5--7--5--2----|
C|----------------------------/9--7--5--7--5--2----|
 |
 |GTR II
d|-------------------------------------------------|
A|-------------------------------------------------|
F|--7--9--9--7--9-----7--9-------------------------|
C|--7--9--9--7--9-----7--9----/9--7--5--7--5--2----|
G|--5--7--7--5--7-----5--7----/9--7--5--7--5--2----|
C|----------------------------/9--7--5--7--5--2----|

  GTR I
d|-------------------------------------------------|
A|-------------------------------------------------|
F|--7--9--9--7--9-----7--9-----7--9-----7--9--9----|
C|--7--9--9--7--9-----7--9-----7--9-----7--9--9----|
G|--5--7--7--5--7-----5--7-----5--7-----5--7--7----|
C|-------------------------------------------------|
 |
 |GTR II
d|-------------------------------------------------|
A|-------------------------------------------------|
F|--7--9--9--7--9-----7--9-----7--9-----7--9--9----|
C|--7--9--9--7--9-----7--9-----7--9-----7--9--9----|
G|--5--7--7--5--7-----5--7-----5--7-----5--7--7----|
C|-------------------------------------------------|

  GTR I
d|-------------------------------------------------|
A|-------------------------------------------------|
F|--7--9--9--7--9-----7--9-------------------------|
C|--7--9--9--7--9-----7--9----/9--7--5--7--5--2----|
G|--5--7--7--5--7-----5--7----/9--7--5--7--5--2----|
C|----------------------------/9--7--5--7--5--2----|
 |
 |GTR II
d|-------------------------------------------------|
A|-------------------------------------------------|
F|--7--9--9--7--9-----7--9-------------------------|
C|--7--9--9--7--9-----7--9----/9--7--5--7--5--2----|
G|--5--7--7--5--7-----5--7----/9--7--5--7--5--2----|
C|----------------------------/9--7--5--7--5--2----|

Outro

  GTR I
d|-------------------------------------------------|
A|-------------------------------------------------|
F|-------------------------------------------------|
C|--2--0--5--2--------2--0--5--2--------2--0--2----|
G|--2--0--5--2--------2--0--5--2--------2--0--2----|
C|--2--0--5--2--------2--0--5--2--------2--0--2----|
 |
 |GTR II
d|-------------------------------------------------|
A|-------------------------------------------------|
F|-------------------------------------------------|
C|--2--0--5--2--------2--0--5--2--------2--0--2----|
G|--2--0--5--2--------2--0--5--2--------2--0--2----|
C|--2--0--5--2--------2--0--5--2--------2--0--2----|
 |
 |GTR III (Dist. with Wah)
d|-------------------------------------------------|
A|-------------------------------------------------|
F|-------------------------------------------------|
C|--2--0--5--2--------2--0--5--2--------2--0--2----|
G|--2--0--5--2--------2--0--5--2--------2--0--2----|
C|--2--0--5--2--------2--0--5--2--------2--0--2----|

  GTR I 
d|-------------------------------------------------|
A|-------------------------------------------------|
F|-------------------------------------------------|
C|--2--0--5--2--------2--0--5--2--------2--0--2----|
G|--2--0--5--2--------2--0--5--2--------2--0--2----|
C|--2--0--5--2--------2--0--5--2--------2--0--2----|
 |
 |GTR II
d|-------------------------------------------------|
A|-------------------------------------------------|
F|-------------------------------------------------|
C|--2--0--5--2--------2--0--5--2--------2--0--2----|
G|--2--0--5--2--------2--0--5--2--------2--0--2----|
C|--2--0--5--2--------2--0--5--2--------2--0--2----|
 |
 |GTR III
d|-------------------------------------------------|
A|-------------------------------------------------|
F|-------------------------------------------------|
C|--2--0--5--2--------2--0--5--2--------2--0--2----|
G|--2--0--5--2--------2--0--5--2--------2--0--2----|
C|--2--0--5--2--------2--0--5--2--------2--0--2----|

  GTR I 
d|-------------------------------------------------|
A|-------------------------------------------------|
F|-------------------------------------------------|
C|--2--0--5--2--------2--0--5--2--------2--0--2----|
G|--2--0--5--2--------2--0--5--2--------2--0--2----|
C|--2--0--5--2--------2--0--5--2--------2--0--2----|
 |
 |GTR II
d|-------------------------------------------------|
A|-------------------------------------------------|
F|-------------------------------------------------|
C|--2--0--5--2--------2--0--5--2--------2--0--2----|
G|--2--0--5--2--------2--0--5--2--------2--0--2----|
C|--2--0--5--2--------2--0--5--2--------2--0--2----|
 |
 |GTR III
d|-------------------------------------------------|
A|-------------------------------------------------|
F|-------------------------------------------------|
C|/12h14-14p12-14p12/16-12~---14-14-12-------------|
G|-------------------------------------14-13-12\---|
C|-------------------------------------------------|

  GTR I 
d|-------------------------------------------------|
A|-------------------------------------------------|
F|-------------------------------------------------|
C|--2--0--5--2--------2--0--5-/9--7--5--7--5--2----|
G|--2--0--5--2--------2--0--5-/9--7--5--7--5--2----|
C|--2--0--5--2--------2--0--5-/9--7--5--7--5--2----|
 |
 |GTR II
d|-------------------------------------------------|
A|-------------------------------------------------|
F|-------------------------------------------------|
C|--2--0--5--2--------2--0--5-/9--7--5--7--5--2----|
G|--2--0--5--2--------2--0--5-/9--7--5--7--5--2----|
C|--2--0--5--2--------2--0--5-/9--7--5--7--5--2----|
 |
 |GTR III
d|-------------------------------------------------|
A|-------------------13----------------------------|
F|---------/12-------15b---------------------------|
C|/14\---------------------------------------------|
G|-------------------------------------------------|
C|-------------------------------------------------|

  GTR I
d|-------------------------------------------------|
A|-------------------------------------------------|
F|-------------------------------------------------|
C|-------------------------------------------------|
G|-------------------------------------------------|
C|-------------------------------------------------|
 |
 |GTR II
d|-------------------------------------------------|
A|-------------------------------------------------|
F|-------------------------------------------------|
C|-------------------------------------------------|
G|-------------------------------------------------|
C|-------------------------------------------------|
 |
 |GTR III (Distortion)
d|-------------------------------------------------|
A|-------------------------------------------------|
F|-------------------------------------------------|
C|--2----------------------------------------------|
G|-------------------------------------------------|
C|-------------------------------------------------|


| /  slide up
| \  slide down
| h  hammer-on
| p  pull-off
| ~  vibrato
| +  harmonic
| x  Mute note
===============================================================================

Tap to rate this tab
# A B C D E F G H I J K L M N O P Q R S T U V W X Y Z