Song name
# A B C D E F G H I J K L M N O P Q R S T U V W X Y Z

Theory Of A Deadman - Bad Girlfriend tab

Bad Girlfriend
Theory Of A Deadman
Scars & Souvenirs
D Tuning- DCGFAD


-Intro-
Tyler
D|-----------------------------------------------------------------------|
A|-----------------------------------------------------------------------|
F|-----------------------------------------------------------------------|
C|--------------------------------5~~--------------------------------5~~-|
G|-2-2-/7-6-5---5-7--2-2-/7-6-5-------2-2-/7-6-5---5-7--2-2-/7-6-5-------|
D|-0-0--------7------0-0--------7-----0-0--------7------0-0--------7-----|
Dave
D|-----------------------------------------------------------------------|
A|-----------------------------------------------------------------------|
F|-----------------------------------------------------------------------|
C|-----------------------------------------------------------------------|
G|-2-2---------------2-2--------------2-2---------------2-2--------------|
D|-0-0---------------0-0--------------0-0---------------0-0--------------|

Tyler
D|----------------------------------------------------------------------|
A|----------------------------------------------------------------------|
F|----------------------------------------------------------------------|
C|----------------------------------------------------------------------|
G|-2-2-/7-6-5---5-7-2-2-/7-6-5---5-7-2-2-/7-6-5---5-7-2-2-/7-6-5--------|
D|-0-0--------7-----0-0--------7-----0-0--------7-----0-0--------7-/12\-|
Dave
D|----------------------------------------------------------------------|
A|----------------------------------------------------------------------|
F|----------------------------------------------------------------------|
C|------x-x-x-x-x-x------x-x-x-x-x-x------x-x-x-x-x-x------x-x-x-x------|
G|-2-2--x-x-x-x-x-x-2-2--x-x-x-x-x-x-2-2--x-x-x-x-x-x-2-2--x-x-x-x------|
D|-0-0--x-x-x-x-x-x-0-0--x-x-x-x-x-x-0-0--x-x-x-x-x-x-0-0--x-x-x-x-/12\-|

Tyler
D|-----------------------------------------------------------------|
A|-----------------------------------------------------------------|
F|-----------------7-7-7-7-7-7-7-7-----------------7-7-7-7-7-7-7-7-|
C|-2-2-2-2-2-2-2-2-7-7-7-7-7-7-7-7-7-7-7-7-7-7-7-7-7-7-7-7-7-7-7-7-|
G|-2-2-2-2-2-2-2-2-5-5-5-5-5-5-5-5-7-7-7-7-7-7-7-7-5-5-5-5-5-5-5-5-|
D|-0-0-0-0-0-0-0-0-----------------5-5-5-5-5-5-5-5-----------------|
Dave w/ slide
D|-----------------------------------------------------------------|
A|-/8---5---3/5---/8---5---3/5---/8=====--5~~~---------------------|
F|-----------------------------------------------4\3-4\3-4\3-------|
C|-------------------------------------------------------------5~~-|
G|-----------------------------------------------------------------|
D|-----------------------------------------------------------------|

Tyler
D|-------------------------------------------------------------------------|
A|-------------------------------------------------------------------------|
F|-----------------7-7-7-7-7-7-7-7-----------------7-7-7-7-7-7-7-7---------|
C|-2-2-2-2-2-2-2-2-7-7-7-7-7-7-7-7-7-7-7-7-7-7-7-7-7-7-7-7-7-7-7-7-7-7-7-7-|
G|-2-2-2-2-2-2-2-2-5-5-5-5-5-5-5-5-7-7-7-7-7-7-7-7-5-5-5-5-5-5-5-5-7-7-7-7-|
D|-0-0-0-0-0-0-0-0-----------------5-5-5-5-5-5-5-5-----------------5-5-5-5-|
Dave w/ slide
D|-------------------------------------------------------------------------|
A|-/8---5---3/5---/8---5---3/5---/8=======----5~~~---/12\11-12\11-12\11-12-|
F|-------------------------------------------------------------------------|
C|-------------------------------------------------------------------------|
G|-------------------------------------------------------------------------|
D|-------------------------------------------------------------------------|


-Verse-
Dave (finger picking)
D|-0-0-0-0-0-0-0-0-0-0-0-0-0-0-0-0-0-0-0-0-0-0-0-0-0-0-0-0-0-0-0-0-|
A|-5-5-5-5-5-5-5-5-3-3-3-3-3-3-3-3-2-2-2-2-2-2-2-2-3-3-3-3-3-3-3-3-|
F|-----------------------------------------------------------------|
C|-----------------------------------------------------------------|
G|-----------------------------------------------------------------|
D|-----------------------------------------------------------------|
"My girlfriends a dick magnet, my girlfriend gotta have it...

D|-0-0-0-0-0-0-0-0-0-0-0-0-0-0-0-0-0-0-0-0-0-0-0-0-0-0-0-0-0-0-0-0-|
A|-5-5-5-5-5-5-5-5-3-3-3-3-3-3-3-3-2-2-2-2-2-2-2-2-3-3-3-3-3-3-3-3-|
F|-----------------------------------------------------------------|
C|-----------------------------------------------------------------|
G|-----------------------------------------------------------------|
D|-----------------------------------------------------------------|
...She's hot, can't stop, up on stage doin' shots
...Tip the man he'll ring the bell, get her drunk she'll scream like hell

D|-0-0-0-0-0-0-0-0-0-0-0-0-0-0-0-0-0-0-0-0-0-0-0-0-0-0-0-0-0-0-0-0-|
A|-5-5-5-5-5-5-5-5-3-3-3-3-3-3-3-3-2-2-2-2-2-2-2-2-3-3-3-3-3-3-3-3-|
F|-----------------------------------------------------------------|
C|-----------------------------------------------------------------|
G|-----------------------------------------------------------------|
D|-----------------------------------------------------------------|
...Dirty girl, gettin' down, dance with guys from outta town
...Grab her ass, actin' tough, mess with her, she'll fuck you up

D|-0-0-0-0-0-0-0-0-0-0-0-0-0-0-0-0-0--0--0--0--0--0--0--0--0--|
A|-5-5-5-5-5-5-5-5-8-8-8-8-8-8-8-8-12-12-12-12-12-15-15-15-15-|
F|------------------------------------------------------------|
C|------------------------------------------------------------|
G|------------------------------------------------------------|
D|------------------------------------------------------------|
...No one really knows, if she's drunk or if she's stoned
...But she's comin' back to my place tonight"

D|-----|
A|-----|
F|-----|
C|-7---|
G|-5-5-|
D|---3-|


-Chorus-
Tyler & Dave
D|-----------------------------------------------------------------|
A|-----------------------------------------------------------------|
F|-----------------7-7-7-7-7-7-7-7-----------------7-7-7-7-7-7-7-7-|
C|-2-2-2-2-2-2-2-2-7-7-7-7-7-7-7-7-7-7-7-7-7-7-7-7-7-7-7-7-7-7-7-7-|
G|-2-2-2-2-2-2-2-2-5-5-5-5-5-5-5-5-7-7-7-7-7-7-7-7-5-5-5-5-5-5-5-5-|
D|-0-0-0-0-0-0-0-0-----------------5-5-5-5-5-5-5-5-----------------|
"She likes to shake her ass, she drives it to the beat
...She's like to pull my hair when I make her grind her teeth

D|-----------------------------------------------------------------|
A|-----------------------------------------------------------------|
F|-----------------7-7-7-7-7-7-7-7-----------------7-7-7-7-7-7-7-7-|
C|-2-2-2-2-2-2-2-2-7-7-7-7-7-7-7-7-7-7-7-7-7-7-7-7-7-7-7-7-7-7-7-7-|
G|-2-2-2-2-2-2-2-2-5-5-5-5-5-5-5-5-7-7-7-7-7-7-7-7-5-5-5-5-5-5-5-5-|
D|-0-0-0-0-0-0-0-0-----------------5-5-5-5-5-5-5-5-----------------|
...I'd like to strip her down, she's naughty to the end
...You know what she is, no doubt about, she's a Bad Bad Girlfriend"

Tyler
D|-------------------------------------------------------------------------|
A|-------------------------------------------------------------------------|
F|-----------------7-7-7-7-7-7-7-7-----------------7-7-7-7-7-7-7-7---------|
C|-2-2-2-2-2-2-2-2-7-7-7-7-7-7-7-7-7-7-7-7-7-7-7-7-7-7-7-7-7-7-7-7-7-7-7-7-|
G|-2-2-2-2-2-2-2-2-5-5-5-5-5-5-5-5-7-7-7-7-7-7-7-7-5-5-5-5-5-5-5-5-7-7-7-7-|
D|-0-0-0-0-0-0-0-0-----------------5-5-5-5-5-5-5-5-----------------5-5-5-5-|
Dave w/ slide
D|-------------------------------------------------------------------------|
A|-/8---5---3/5---/8---5---3/5---/8=======----5~~~---/12\11-12\11-12\11-12-|
F|-------------------------------------------------------------------------|
C|-------------------------------------------------------------------------|
G|-------------------------------------------------------------------------|
D|-------------------------------------------------------------------------|


-Verse-
D|-0-0-0-0-0-0-0-0-0-0-0-0-0-0-0-0-0-0-0-0-0-0-0-0-0-0-0-0-0-0-0-0-|
A|-5-5-5-5-5-5-5-5-3-3-3-3-3-3-3-3-2-2-2-2-2-2-2-2-3-3-3-3-3-3-3-3-|
F|-----------------------------------------------------------------|
C|-----------------------------------------------------------------|
G|-----------------------------------------------------------------|
D|-----------------------------------------------------------------|
"Red thong, party's on, love this song, sing along
...Come together, leave alone, see you later back at home

D|-0-0-0-0-0-0-0-0-0-0-0-0-0-0-0-0-0-0-0-0-0-0-0-0-0-0-0-0-0-0-0-0-|
A|-5-5-5-5-5-5-5-5-3-3-3-3-3-3-3-3-2-2-2-2-2-2-2-2-3-3-3-3-3-3-3-3-|
F|-----------------------------------------------------------------|
C|-----------------------------------------------------------------|
G|-----------------------------------------------------------------|
D|-----------------------------------------------------------------|
...No one really knows, if she's drunk or if she's stoned
...But she's comin' back to my place tonight

D|-0-0-0-0-0-0-0-0-0-0-0-0-0-0-0-0-0--0--0--0--0--0--0--0--0--|
A|-5-5-5-5-5-5-5-5-8-8-8-8-8-8-8-8-12-12-12-12-12-15-15-15-15-|
F|------------------------------------------------------------|
C|------------------------------------------------------------|
G|------------------------------------------------------------|
D|------------------------------------------------------------|
...I said no one really knows, just how far she's gonna go
...But I'm gonna find out later tonight"

D|-----|
A|-----|
F|-----|
C|-7---|
G|-5-5-|
D|---3-|


-Chorus-
Tyler & Dave
D|-----------------------------------------------------------------|
A|-----------------------------------------------------------------|
F|-----------------7-7-7-7-7-7-7-7-----------------7-7-7-7-7-7-7-7-|
C|-2-2-2-2-2-2-2-2-7-7-7-7-7-7-7-7-7-7-7-7-7-7-7-7-7-7-7-7-7-7-7-7-|
G|-2-2-2-2-2-2-2-2-5-5-5-5-5-5-5-5-7-7-7-7-7-7-7-7-5-5-5-5-5-5-5-5-|
D|-0-0-0-0-0-0-0-0-----------------5-5-5-5-5-5-5-5-----------------|
"She likes to shake her ass, she drives it to the beat
...She's like to pull my hair when I make her grind her teeth

D|-----------------------------------------------------------------|
A|-----------------------------------------------------------------|
F|-----------------7-7-7-7-7-7-7-7-----------------7-7-7-7-7-7-7-7-|
C|-2-2-2-2-2-2-2-2-7-7-7-7-7-7-7-7-7-7-7-7-7-7-7-7-7-7-7-7-7-7-7-7-|
G|-2-2-2-2-2-2-2-2-5-5-5-5-5-5-5-5-7-7-7-7-7-7-7-7-5-5-5-5-5-5-5-5-|
D|-0-0-0-0-0-0-0-0-----------------5-5-5-5-5-5-5-5-----------------|
...I'd like to strip her down, she's naughty to the end
...You know what she is, no doubt about it, she's a Bad Bad Girlfriend"


-Breakdown-
D|-----------------------------------------------------------------------------|
A|-----------------------------------------------------------------------------|
F|-5-5-5-5-5-5-5-5-7-7-7-7-7-7-7-7---------------------------------------------|
C|-5-5-5-5-5-5-5-5-7-7-7-7-7-7-7-7---------------------------------------------|
G|-3-3-3-3-3-3-3-3-5-5-5-5-5-5-5-5-----------------------<2>------<2>----------|
D|---------------------------------0-<2><2>-0-<2><2>-3b=----<2>-0----<2>-0-3b=-|
"Doesn't take her long to make things right...

D|-----------------------------------------------------------------------------|
A|-----------------------------------------------------------------------------|
F|-5-5-5-5-5-5-5-5-7-7-7-7-7-7-7-7---------------------------------------------|
C|-5-5-5-5-5-5-5-5-7-7-7-7-7-7-7-7---------------------------------------------|
G|-3-3-3-3-3-3-3-3-5-5-5-5-5-5-5-5-----------------------<2>------<2>----------|
D|---------------------------------0-<2><2>-0-<2><2>-3b=----<2>-0----<2>-0-3b=-|
...But does it make her wrong to have the time of her life? Time of her life...

D|-------------------------------------------|
A|-------------------------------------------|
F|-------------------------------------------|
C|-------------------------------------------|
G|---------------------<2>------<2>----------|
D|-0-<2><2>-0-<2><2>-0----<2>-0----<2>-0-3b=-|

Tyler
D|----------------------------------------------------------------------|
A|----------------------------------------------------------------------|
F|----------------------------------------------------------------------|
C|----------------------------------------------------------------------|
G|-2-2-/7-6-5---5-7-2-2-/7-6-5---5-7-2-2-/7-6-5---5-7-2-2-/7-6-5--------|
D|-0-0--------7-----0-0--------7-----0-0--------7-----0-0--------7-/12\-|
Dave
D|----------------------------------------------------------------------|
A|----------------------------------------------------------------------|
F|----------------------------------------------------------------------|
C|----------------------------------------------------------------------|
G|-2-2--------------2-2--------------2-2--------------2-2---------------|
D|-0-0--------------0-0--------------0-0--------------0-0----------/12\-|
...My girlfriend's a dick magnet, my girlfriend gotta have it"


-Solo-
Tyler w/ wah
D|-13/15--------------13/15~~----------------------------------------------|
A|--------17~~-15/17------------------15/17~--------8/10~------------------|
F|----------------------------9/12\9---------9/12\9-------9\8-9\8-9\8------|
C|--------------------------------------------------------------------10\7-|
G|-------------------------------------------------------------------------|
D|-------------------------------------------------------------------------|

D|-------------------------------------------------19-17~~-17\15----------------------------|
A|-------12-10~~-10\8-------12-10~~-10\8--17-17-17----------------17-16-15-16-17-15-16-17~~~|
F|-9-9-9--------------9-9-9-----------------------------------------------------------------|
C|------------------------------------------------------------------------------------------|
G|------------------------------------------------------------------------------------------|
D|------------------------------------------------------------------------------------------|
-Dave Under Solo-
D|-----------------------------------------------------------------|
A|-----------------------------------------------------------------|
F|-----------------7-7-7-7-7-7-7-7-----------------7-7-7-7-7-7-7-7-|
C|-2-2-2-2-2-2-2-2-7-7-7-7-7-7-7-7-7-7-7-7-7-7-7-7-7-7-7-7-7-7-7-7-|
G|-2-2-2-2-2-2-2-2-5-5-5-5-5-5-5-5-7-7-7-7-7-7-7-7-5-5-5-5-5-5-5-5-|
D|-0-0-0-0-0-0-0-0-----------------5-5-5-5-5-5-5-5-----------------|

D|-----------------------------------------------------------------|
A|-----------------------------------------------------------------|
F|-----------------7-7-7-7-7-7-7-7-----------------7-7-7-7-7-7-7-7-|
C|-2-2-2-2-2-2-2-2-7-7-7-7-7-7-7-7-7-7-7-7-7-7-7-7-7-7-7-7-7-7-7-7-|
G|-2-2-2-2-2-2-2-2-5-5-5-5-5-5-5-5-7-7-7-7-7-7-7-7-5-5-5-5-5-5-5-5-|
D|-0-0-0-0-0-0-0-0-----------------5-5-5-5-5-5-5-5-----------------|

Tyler & Dave
D|-----------------------------------------------------------------|
A|-----------------------------------------------------------------|
F|-----------------7-7-7-7-7-7-7-7-----------------7-7-7-7-7-7-7-7-|
C|-2-2-2-2-2-2-2-2-7-7-7-7-7-7-7-7-7-7-7-7-7-7-7-7-7-7-7-7-7-7-7-7-|
G|-2-2-2-2-2-2-2-2-5-5-5-5-5-5-5-5-7-7-7-7-7-7-7-7-5-5-5-5-5-5-5-5-|
D|-0-0-0-0-0-0-0-0-----------------5-5-5-5-5-5-5-5-----------------|
"She's a gold digger, now you figure, out its over, pull the trigger.
Future's finished, there it went, savings gone, the money spent.

D|-------------------------------------------------------------------|
A|-------------------------------------------------------------------|
F|-----------------7-7-7-7-7-7-7-7-----------------7-7-7-7-7-7-7-7---|
C|-2-2-2-2-2-2-2-2-7-7-7-7-7-7-7-7-7-7-7-7-7-7-7-7-7-7-7-7-7-7-7-7-7-|
G|-2-2-2-2-2-2-2-2-5-5-5-5-5-5-5-5-7-7-7-7-7-7-7-7-5-5-5-5-5-5-5-5-7-|
D|-0-0-0-0-0-0-0-0-----------------5-5-5-5-5-5-5-5-----------------5-|
...I look around and all I see is no good, bad and ugly, man she's hot
and fixed to be, the future Ex-Miss Connolly!


She likes to shake her ass!

-Chorus-
Tyler & Dave
D|-----------------------------------------------------------------|
A|-----------------------------------------------------------------|
F|-----------------7-7-7-7-7-7-7-7-----------------7-7-7-7-7-7-7-7-|
C|-2-2-2-2-2-2-2-2-7-7-7-7-7-7-7-7-7-7-7-7-7-7-7-7-7-7-7-7-7-7-7-7-|
G|-2-2-2-2-2-2-2-2-5-5-5-5-5-5-5-5-7-7-7-7-7-7-7-7-5-5-5-5-5-5-5-5-|
D|-0-0-0-0-0-0-0-0-----------------5-5-5-5-5-5-5-5-----------------|
"She drives it to the beat. She's like to pull my hair when
I make her grind her teeth..

D|-----------------------------------------------------------------|
A|-----------------------------------------------------------------|
F|-----------------7-7-7-7-7-7-7-7-----------------7-7-7-7-7-7-7-7-|
C|-2-2-2-2-2-2-2-2-7-7-7-7-7-7-7-7-7-7-7-7-7-7-7-7-7-7-7-7-7-7-7-7-|
G|-2-2-2-2-2-2-2-2-5-5-5-5-5-5-5-5-7-7-7-7-7-7-7-7-5-5-5-5-5-5-5-5-|
D|-0-0-0-0-0-0-0-0-----------------5-5-5-5-5-5-5-5-----------------|
...I'd like to strip her down, she's naughty to the end
...You know what she is, no doubt about, she's a Bad Bad Girlfriend"


Tyler
D|-----------------------------------------------------------------|
A|-----------------------------------------------------------------|
F|-----------------7-7-7-7-7-7-7-7-----------------7-7-7-7-7-7-7-7-|
C|-2-2-2-2-2-2-2-2-7-7-7-7-7-7-7-7-7-7-7-7-7-7-7-7-7-7-7-7-7-7-7-7-|
G|-2-2-2-2-2-2-2-2-5-5-5-5-5-5-5-5-7-7-7-7-7-7-7-7-5-5-5-5-5-5-5-5-|
D|-0-0-0-0-0-0-0-0-----------------5-5-5-5-5-5-5-5-----------------|
Dave w/ slide
D|-----------------------------------------------------------------|
A|-/8---5---3/5---/8---5---3/5---/8=====--5~~~---------------------|
F|-----------------------------------------------4\3-4\3-4\3-------|
C|-------------------------------------------------------------5~~-|
G|-----------------------------------------------------------------|
D|-----------------------------------------------------------------|
"She's a Bad, Bad Girlfriend

Tyler
D|-------------------------------------------------------------------------|
A|-------------------------------------------------------------------------|
F|-----------------7-7-7-7-7-7-7-7-----------------7-7-7-7-7-7-7-7---------|
C|-2-2-2-2-2-2-2-2-7-7-7-7-7-7-7-7-7-7-7-7-7-7-7-7-7-7-7-7-7-7-7-7-7-7-7-7-|
G|-2-2-2-2-2-2-2-2-5-5-5-5-5-5-5-5-7-7-7-7-7-7-7-7-5-5-5-5-5-5-5-5-7-7-7-7-|
D|-0-0-0-0-0-0-0-0-----------------5-5-5-5-5-5-5-5-----------------5-5-5-5-|
Dave w/ slide
D|-------------------------------------------------------------------------|
A|-/8---5---3/5---/8---5---3/5---/8=======----5~~~---/12\11-12\11-12\11-12-|
F|-------------------------------------------------------------------------|
C|-------------------------------------------------------------------------|
G|-------------------------------------------------------------------------|
D|-------------------------------------------------------------------------|
...She's a Bad, Bad Girlfriend!"


Tyler
D|------------------------------------|
A|------------------------------------|
F|------------------------------------|
C|------------------------------------|
G|-2-2-/7-6-5---5-7--2-2-/7-6-5---2-2-|
D|-0-0--------7------0-0--------7-0-0-|
Dave
D|------------------------------------|
A|------------------------------------|
F|------------------------------------|
C|------------------------------------|
G|-2-2---------------2-2----------2-2-|
D|-0-0---------------0-0----------0-0-|
Tap to rate this tab
# A B C D E F G H I J K L M N O P Q R S T U V W X Y Z