Song name
# A B C D E F G H I J K L M N O P Q R S T U V W X Y Z

Theory Of A Deadman - By The Way Acoustic tab

By The Way (Acoustic)
Theory of A Deadman
Scars & Souvenirs (2008)

By The Way:  written by Tyler Connolly, Brian Craddock, and Chris Daughtry

GTR I - Eb Tuning Acoustic (eb,Bb,Gb,Db,Ab,Eb)
GTR II - Eb Tuning Acoustic (eb,Bb,Gb,Db,Ab,Eb)

NOTE:  The solo is different in the acoustic version compared to the standard
version, so it can be substituted if you cannot play the other

Intro

   GTR I,II
eb|-------------------------------------|
Bb|-------------------------------------|
Gb|-------------------------------------|
Db|-------------------------------------|
Ab|--0h-2--2--2--2--2--2h-3--3--3--3--3-|
Eb|--0--0--0--0--0--0--0--0--0--0--0--0-|
           .     .           .     .

   GTR I,II
eb|-------------------------------------|
Bb|-------------------------------------|
Gb|-------------------------------------|
Db|-------------------------------------|
Ab|--3p-2--2--2--0h-2--0-----0--0--0--0-|
Eb|--0--0--0--0--0--0--0-----0--0--0--0-|
           .

   GTR I,II
eb|-------------------------------------|
Bb|-------------------------------------|
Gb|-------------------------------------|
Db|-------------------------------------|
Ab|--0h-2--2--2--2--2--2h-3--3--3--3--3-|
Eb|--0--0--0--0--0--0--0--0--0--0--0--0-|
           .     .           .     .

   GTR I,II
eb|-------------------------------------|
Bb|-------------------------------------|
Gb|-------------------------------------|
Db|-------------------------------------|
Ab|--3p-2--2--2--0h-2--0----------------|
Eb|--0--0--0--0--0--0--0----------------|
           .

Main Riff

   GTR I
eb|-------------------------------------|
Bb|-------------------------------------|
Gb|-------------------------------------|
Db|-------------------------------------|
Ab|--0h-2--2--2--2--2--2h-3--3--3--3--3-|
Eb|--0--0--0--0--0--0--0--0--0--0--0--0-|
  |        .     .           .     .
  |GTR II
eb|-------------------------------------|
Bb|-------------------------------------|
Gb|--2/-4--4--4--4--4--4/-5--5--5--5--5-|
Db|-------------------------------------|
Ab|-------------------------------------|
Eb|-------------------------------------|
           .     .           .     .

   GTR I
eb|-------------------------------------|
Bb|-------------------------------------|
Gb|-------------------------------------|
Db|-------------------------------------|
Ab|--3p-2--2--2--0h-2--0-----0--0--0--0-|
Eb|--0--0--0--0--0--0--0-----0--0--0--0-|
  |        .
  |GTR II
eb|-------------------------------------|
Bb|-------------------------------------|
Gb|--5\-4--4--4--2/-4\-2-----2--2--2--2-|
Db|-------------------------------------|
Ab|-------------------------------------|
Eb|-------------------------------------|
           .                 .     .

   GTR I
eb|-------------------------------------|
Bb|-------------------------------------|
Gb|-------------------------------------|
Db|-------------------------------------|
Ab|--0h-2--2--2--2--2--2h-3--3--3--3--3-|
Eb|--0--0--0--0--0--0--0--0--0--0--0--0-|
  |        .     .           .     .
  |GTR II
eb|-------------------------------------|
Bb|-------------------------------------|
Gb|--2/-4--4--4--4--4--4/-5--5--5--5--5-|
Db|-------------------------------------|
Ab|-------------------------------------|
Eb|-------------------------------------|
           .     .           .     .

   GTR I
eb|-------------------------------------|
Bb|-------------------------------------|
Gb|-------------------------------------|
Db|-------------------------------------|
Ab|--3p-2--2--2--0h-2--0-----0--0-------|
Eb|--0--0--0--0--0--0--0-----0--0--3--2-|
  |        .
  |GTR II
eb|-------------------------------------|
Bb|-------------------------------------|
Gb|--5\-4--4--4--2/-4\-2-----2--2--0----|
Db|-----------------------------------4-|
Ab|-------------------------------------|
Eb|-------------------------------------|
           .                 .      

Verse

   GTR I,II
eb|--0-----0--0--0--0--0-----0--0--0--0-|
Bb|--0-----0--0--0--0--0-----0--0--0--0-|
Gb|--0-----0--0--0--0--0-----0--0--0--0-|
Db|--2-----2--2--2--2--2-----2--2--2--0-|
Ab|--2-----2--2--2--2--2-----2--2--2--0-|
Eb|--0-----0--0--0--0--0-----0--0--0--0-|

   GTR I,II
eb|--2-----2--2--2--2--2-----2--2--2--0-|
Bb|--3-----3--3--3--3--3-----3--3--3--0-|
Gb|--2-----2--2--2--2--2-----2--2--2--0-|
Db|--0-----0--0--0--0--0-----0--0--0--0-|
Ab|--0-----0--0--0--0--0-----0--0--0--0-|
Eb|--0-----0--0--0--0--0-----0--0--0--0-|

   GTR I,II
eb|--0-----0--0--0--0--0-----0--0--0--0-|
Bb|--1-----1--1--1--1--1-----1--1--1--0-|
Gb|--2-----2--2--2--2--2-----2--2--2--0-|
Db|--2-----2--2--2--2--2-----2--2--2--0-|
Ab|--0-----0--0--0--0--0-----0--0--0--0-|
Eb|--0-----0--0--0--0--0-----0--0--0--0-|

   GTR I
eb|--0-----0--0--0--0--0-----0--0--0--0-|
Bb|--1-----1--1--1--1--1-----1--1--1--0-|
Gb|--0-----0--0--0--0--0-----0--0--0--0-|
Db|--2-----2--2--2--2--2-----2--2--2--0-|
Ab|--3-----3--3--3--3--3-----3--3--3--0-|
Eb|--0-----0--0--0--0--0-----0--0--0--0-|
  |
  |GTR II
eb|--0-----0--0--0--0--0----------------|
Bb|--1-----1--1--1--1--1----------------|
Gb|--0-----0--0--0--0--0----------------|
Db|--2-----2--2--2--2--2----------------|
Ab|--3-----3--3--3--3--3----------------|
Eb|--0-----0--0--0--0--0-----2br2--3--2-|

   GTR I,II
eb|--0-----0--0--0--0--0-----0--0--0--0-|
Bb|--0-----0--0--0--0--0-----0--0--0--0-|
Gb|--0-----0--0--0--0--0-----0--0--0--0-|
Db|--2-----2--2--2--2--2-----2--2--2--0-|
Ab|--2-----2--2--2--2--2-----2--2--2--0-|
Eb|--0-----0--0--0--0--0-----0--0--0--0-|

   GTR I,II
eb|--2-----2--2--2--2--2-----2--2--2--0-|
Bb|--3-----3--3--3--3--3-----3--3--3--0-|
Gb|--2-----2--2--2--2--2-----2--2--2--0-|
Db|--0-----0--0--0--0--0-----0--0--0--0-|
Ab|--0-----0--0--0--0--0-----0--0--0--0-|
Eb|--0-----0--0--0--0--0-----0--0--0--0-|

   GTR I,II
eb|--0-----0--0--0--0--0-----0--0--0--0-|
Bb|--5-----5--5--5--5--7-----7--7--7--7-|
Gb|--4-----4--4--4--4--6-----6--6--6--6-|
Db|--2-----2--2--2--2--4-----4--4--4--4-|
Ab|--0-----0--0--0--0--0-----0--0--0--0-|
Eb|--0-----0--0--0--0--0-----0--0--0--0-|

   GTR I,II
eb|--0-----0--0--0--0--0-----0--0--0--0-|
Bb|--8-----8--8--8--8-10----10-10-10--0-|
Gb|--7-----7--7--7--7--9-----9--9--9--0-|
Db|--5-----5--5--5--5--7-----7--7--7--0-|
Ab|--0-----0--0--0--0--0-----0--0--0--0-|
Eb|--0-----0--0--0--0--0-----0--0--0--0-|

   GTR I,II
eb|--0-----0--0--0--0--0-----0--0--0--0-|
Bb|--0-----0--0--0--0--0-----0--0--0--0-|
Gb|--0-----0--0--0--0--0-----0--0--0--0-|
Db|--2-----2--2--2--2--2-----2--2--2--0-|
Ab|--2-----2--2--2--2--2-----2--2--2--0-|
Eb|--0-----0--0--0--0--0-----0--0--0--0-|

   GTR I,II
eb|--2-----2--2--2--2--2-----2--2--2--0-|
Bb|--3-----3--3--3--3--3-----3--3--3--0-|
Gb|--2-----2--2--2--2--2-----2--2--2--0-|
Db|--0-----0--0--0--0--0-----0--0--0--0-|
Ab|--0-----0--0--0--0--0-----0--0--0--0-|
Eb|--0-----0--0--0--0--0-----0--0--0--0-|

   GTR I,II
eb|--0-----0--0--0--0--0-----0--0--0--0-|
Bb|--1-----1--1--1--1--1-----1--1--1--0-|
Gb|--2-----2--2--2--2--2-----2--2--2--0-|
Db|--2-----2--2--2--2--2-----2--2--2--0-|
Ab|--0-----0--0--0--0--0-----0--0--0--0-|
Eb|--0-----0--0--0--0--0-----0--0--0--0-|

   GTR I
eb|--0-----0--0--0--0--0-----0--0--0--0-|
Bb|--1-----1--1--1--1--1-----1--1--1--0-|
Gb|--0-----0--0--0--0--0-----0--0--0--0-|
Db|--2-----2--2--2--2--2-----2--2--2--0-|
Ab|--3-----3--3--3--3--3-----3--3--3--0-|
Eb|--0-----0--0--0--0--0-----0--0--0--0-|
  |
  |GTR II
eb|--0-----0--0--0--0--0----------------|
Bb|--1-----1--1--1--1--1----------------|
Gb|--0-----0--0--0--0--0----------------|
Db|--2-----2--2--2--2--2----------------|
Ab|--3-----3--3--3--3--3----------------|
Eb|--0-----0--0--0--0--0-----2br2--3--2-|

   GTR I,II
eb|--0-----0--0--0--0--0-----0--0--0--0-|
Bb|--0-----0--0--0--0--0-----0--0--0--0-|
Gb|--0-----0--0--0--0--0-----0--0--0--0-|
Db|--2-----2--2--2--2--2-----2--2--2--0-|
Ab|--2-----2--2--2--2--2-----2--2--2--0-|
Eb|--0-----0--0--0--0--0-----0--0--0--0-|

   GTR I,II
eb|--2-----2--2--2--2--2-----2--2--2--0-|
Bb|--3-----3--3--3--3--3-----3--3--3--0-|
Gb|--2-----2--2--2--2--2-----2--2--2--0-|
Db|--0-----0--0--0--0--0-----0--0--0--0-|
Ab|--0-----0--0--0--0--0-----0--0--0--0-|
Eb|--0-----0--0--0--0--0-----0--0--0--0-|

   GTR I,II
eb|--0-----0--0--0--0--0-----0--0--0--0-|
Bb|--5-----5--5--5--5--7-----7--7--7--7-|
Gb|--4-----4--4--4--4--6-----6--6--6--6-|
Db|--2-----2--2--2--2--4-----4--4--4--4-|
Ab|--0-----0--0--0--0--0-----0--0--0--0-|
Eb|--0-----0--0--0--0--0-----0--0--0--0-|

   GTR I,II
eb|--0-----0--0--0--0--0-----0--0--0--0-|
Bb|--8-----8--8--8--8-10----10-10-10--0-|
Gb|--7-----7--7--7--7--9-----9--9--9--0-|
Db|--5-----5--5--5--5--7-----7--7--7--0-|
Ab|--0-----0--0--0--0--0-----0--0--0--0-|
Eb|--0-----0--0--0--0--0-----0--0--0--0-|

Pre Chorus

   GTR I,II
eb|-------------------------------------|
Bb|--5-----5-----5-----7-----7-----7----|
Gb|--4-----4-----4-----6-----6-----6----|
Db|--2-----2-----2-----4-----4-----4----|
Ab|--0-----0-----0-----0-----0-----0----|
Eb|-------------------------------------|
     .     .     .     .     .     .

   GTR I,II
eb|--------------------0-----0-----0--0-|
Bb|--8-----8-----8----10----10----10-10-|
Gb|--7-----7-----7-----9-----9-----9--9-|
Db|--5-----5-----5-----7-----7-----7--7-|
Ab|--0-----0-----0-----0-----0-----0--0-|
Eb|--------------------0-----0-----0--0-|
     .     .     .                  

Chorus

   GTR I,II
eb|--0-----0--0--0--0--0-----0--0--0--0-|
Bb|--0-----0--0--0--0--0-----0--0--0--0-|
Gb|--0-----0--0--0--0--0-----0--0--0--0-|
Db|--2-----2--2--2--2--2-----2--2--2--0-|
Ab|--2-----2--2--2--2--2-----2--2--2--0-|
Eb|--0-----0--0--0--0--0-----0--0--0--0-|

   GTR I,II
eb|--2-----2--2--2--2--2-----2--2-------|
Bb|--3-----3--3--3--3--3-----3--3-------|
Gb|--2-----2--2--2--2--2-----2--2--2--2-|
Db|--0-----0--0--0--0--0-----0--0--0--0-|
Ab|--0-----0--0--0--0--0-----0--0--0--0-|
Eb|--0-----0--0--0--0--0-----0--0-------|
                                   .  .

   GTR I,II
eb|--2-----2--2--2--2--2-----2--2--2--0-|
Bb|--3-----3--3--3--3--3-----3--3--3--0-|
Gb|--2-----2--2--2--2--2-----2--2--2--0-|
Db|--0-----0--0--0--0--0-----0--0--0--0-|
Ab|--0-----0--0--0--0--0-----0--0--0--0-|
Eb|--0-----0--0--0--0--0-----0--0--0--0-|

   GTR I,II
eb|--0-----0--0--0--0--0-----0--0--0--0-|
Bb|--1-----1--1--1--1--1-----1--1--1--0-|
Gb|--0-----0--0--0--0--0-----0--0--0--0-|
Db|--2-----2--2--2--2--2-----2--2--2--0-|
Ab|--3-----3--3--3--3--3-----3--3--3--0-|
Eb|--0-----0--0--0--0--0-----0--0--0--0-|

   GTR I,II
eb|--0-----0--0--0--0--0-----0--0--0--0-|
Bb|--0-----0--0--0--0--0-----0--0--0--0-|
Gb|--0-----0--0--0--0--0-----0--0--0--0-|
Db|--2-----2--2--2--2--2-----2--2--2--0-|
Ab|--2-----2--2--2--2--2-----2--2--2--0-|
Eb|--0-----0--0--0--0--0-----0--0--0--0-|

   GTR I,II
eb|--2-----2--2--2--2--2-----2--2-------|
Bb|--3-----3--3--3--3--3-----3--3-------|
Gb|--2-----2--2--2--2--2-----2--2--2--2-|
Db|--0-----0--0--0--0--0-----0--0--0--0-|
Ab|--0-----0--0--0--0--0-----0--0--0--0-|
Eb|--0-----0--0--0--0--0-----0--0-------|
                                   .  .

   GTR I,II
eb|--2-----2--2--2--2--2-----2--2--2--0-|
Bb|--3-----3--3--3--3--3-----3--3--3--0-|
Gb|--2-----2--2--2--2--2-----2--2--2--0-|
Db|--0-----0--0--0--0--0-----0--0--0--0-|
Ab|--0-----0--0--0--0--0-----0--0--0--0-|
Eb|--0-----0--0--0--0--0-----0--0--0--0-|

   GTR I,II
eb|--0-----0--0--0--0--0-----0--0--0--0-|
Bb|--1-----1--1--1--1--1-----1--1--1--0-|
Gb|--0-----0--0--0--0--0-----0--0--0--0-|
Db|--2-----2--2--2--2--2-----2--2--2--0-|
Ab|--3-----3--3--3--3--3-----3--3--3--0-|
Eb|--0-----0--0--0--0--0-----0--0--0--0-|

Main Riff

   GTR I
eb|-------------------------------------|
Bb|-------------------------------------|
Gb|-------------------------------------|
Db|-------------------------------------|
Ab|--0h-2--2--2--2--2--2h-3--3--3--3--3-|
Eb|--0--0--0--0--0--0--0--0--0--0--0--0-|
  |        .     .           .     .
  |GTR II
eb|-------------------------------------|
Bb|-------------------------------------|
Gb|--2/-4--4--4--4--4--4/-5--5--5--5--5-|
Db|-------------------------------------|
Ab|-------------------------------------|
Eb|-------------------------------------|
           .     .           .     .

   GTR I
eb|-------------------------------------|
Bb|-------------------------------------|
Gb|-------------------------------------|
Db|-------------------------------------|
Ab|--3p-2--2--2--0h-2--0-----0--0-------|
Eb|--0--0--0--0--0--0--0-----0--0--3--2-|
  |        .
  |GTR II
eb|-------------------------------------|
Bb|-------------------------------------|
Gb|--5\-4--4--4--2/-4\-2-----2--2--0----|
Db|-----------------------------------4-|
Ab|-------------------------------------|
Eb|-------------------------------------|
           .                 .      

Verse

   GTR I,II
eb|--0-----0--0--0--0--0-----0--0--0--0-|
Bb|--0-----0--0--0--0--0-----0--0--0--0-|
Gb|--0-----0--0--0--0--0-----0--0--0--0-|
Db|--2-----2--2--2--2--2-----2--2--2--0-|
Ab|--2-----2--2--2--2--2-----2--2--2--0-|
Eb|--0-----0--0--0--0--0-----0--0--0--0-|

   GTR I,II
eb|--2-----2--2--2--2--2-----2--2--2--0-|
Bb|--3-----3--3--3--3--3-----3--3--3--0-|
Gb|--2-----2--2--2--2--2-----2--2--2--0-|
Db|--0-----0--0--0--0--0-----0--0--0--0-|
Ab|--0-----0--0--0--0--0-----0--0--0--0-|
Eb|--0-----0--0--0--0--0-----0--0--0--0-|

   GTR I,II
eb|--0-----0--0--0--0--0-----0--0--0--0-|
Bb|--1-----1--1--1--1--1-----1--1--1--0-|
Gb|--2-----2--2--2--2--2-----2--2--2--0-|
Db|--2-----2--2--2--2--2-----2--2--2--0-|
Ab|--0-----0--0--0--0--0-----0--0--0--0-|
Eb|--0-----0--0--0--0--0-----0--0--0--0-|

   GTR I
eb|--0-----0--0--0--0--0-----0--0--0--0-|
Bb|--1-----1--1--1--1--1-----1--1--1--0-|
Gb|--0-----0--0--0--0--0-----0--0--0--0-|
Db|--2-----2--2--2--2--2-----2--2--2--0-|
Ab|--3-----3--3--3--3--3-----3--3--3--0-|
Eb|--0-----0--0--0--0--0-----0--0--0--0-|
  |
  |GTR II
eb|--0-----0--0--0--0--0----------------|
Bb|--1-----1--1--1--1--1----------------|
Gb|--0-----0--0--0--0--0----------------|
Db|--2-----2--2--2--2--2----------------|
Ab|--3-----3--3--3--3--3----------------|
Eb|--0-----0--0--0--0--0-----2br2--3--2-|

   GTR I,II
eb|--0-----0--0--0--0--0-----0--0--0--0-|
Bb|--0-----0--0--0--0--0-----0--0--0--0-|
Gb|--0-----0--0--0--0--0-----0--0--0--0-|
Db|--2-----2--2--2--2--2-----2--2--2--0-|
Ab|--2-----2--2--2--2--2-----2--2--2--0-|
Eb|--0-----0--0--0--0--0-----0--0--0--0-|

   GTR I,II
eb|--2-----2--2--2--2--2-----2--2--2--0-|
Bb|--3-----3--3--3--3--3-----3--3--3--0-|
Gb|--2-----2--2--2--2--2-----2--2--2--0-|
Db|--0-----0--0--0--0--0-----0--0--0--0-|
Ab|--0-----0--0--0--0--0-----0--0--0--0-|
Eb|--0-----0--0--0--0--0-----0--0--0--0-|

   GTR I,II
eb|--0-----0--0--0--0--0-----0--0--0--0-|
Bb|--5-----5--5--5--5--7-----7--7--7--7-|
Gb|--4-----4--4--4--4--6-----6--6--6--6-|
Db|--2-----2--2--2--2--4-----4--4--4--4-|
Ab|--0-----0--0--0--0--0-----0--0--0--0-|
Eb|--0-----0--0--0--0--0-----0--0--0--0-|

   GTR I,II
eb|--0-----0--0--0--0--0-----0--0--0--0-|
Bb|--8-----8--8--8--8-10----10-10-10--0-|
Gb|--7-----7--7--7--7--9-----9--9--9--0-|
Db|--5-----5--5--5--5--7-----7--7--7--0-|
Ab|--0-----0--0--0--0--0-----0--0--0--0-|
Eb|--0-----0--0--0--0--0-----0--0--0--0-|

Pre Chorus

   GTR I,II
eb|-------------------------------------|
Bb|--5-----5-----5-----7-----7-----7----|
Gb|--4-----4-----4-----6-----6-----6----|
Db|--2-----2-----2-----4-----4-----4----|
Ab|--0-----0-----0-----0-----0-----0----|
Eb|-------------------------------------|
     .     .     .     .     .     .

   GTR I,II
eb|--------------------0-----0-----0--0-|
Bb|--8-----8-----8----10----10----10-10-|
Gb|--7-----7-----7-----9-----9-----9--9-|
Db|--5-----5-----5-----7-----7-----7--7-|
Ab|--0-----0-----0-----0-----0-----0--0-|
Eb|--------------------0-----0-----0--0-|
     .     .     .                  

Chorus

   GTR I,II
eb|--0-----0--0--0--0--0-----0--0--0--0-|
Bb|--0-----0--0--0--0--0-----0--0--0--0-|
Gb|--0-----0--0--0--0--0-----0--0--0--0-|
Db|--2-----2--2--2--2--2-----2--2--2--0-|
Ab|--2-----2--2--2--2--2-----2--2--2--0-|
Eb|--0-----0--0--0--0--0-----0--0--0--0-|

   GTR I,II
eb|--2-----2--2--2--2--2-----2--2-------|
Bb|--3-----3--3--3--3--3-----3--3-------|
Gb|--2-----2--2--2--2--2-----2--2--2--2-|
Db|--0-----0--0--0--0--0-----0--0--0--0-|
Ab|--0-----0--0--0--0--0-----0--0--0--0-|
Eb|--0-----0--0--0--0--0-----0--0-------|
                                   .  .

   GTR I,II
eb|--2-----2--2--2--2--2-----2--2--2--0-|
Bb|--3-----3--3--3--3--3-----3--3--3--0-|
Gb|--2-----2--2--2--2--2-----2--2--2--0-|
Db|--0-----0--0--0--0--0-----0--0--0--0-|
Ab|--0-----0--0--0--0--0-----0--0--0--0-|
Eb|--0-----0--0--0--0--0-----0--0--0--0-|

   GTR I,II
eb|--0-----0--0--0--0--0-----0--0--0--0-|
Bb|--1-----1--1--1--1--1-----1--1--1--0-|
Gb|--0-----0--0--0--0--0-----0--0--0--0-|
Db|--2-----2--2--2--2--2-----2--2--2--0-|
Ab|--3-----3--3--3--3--3-----3--3--3--0-|
Eb|--0-----0--0--0--0--0-----0--0--0--0-|

   GTR I,II
eb|--0-----0--0--0--0--0-----0--0--0--0-|
Bb|--0-----0--0--0--0--0-----0--0--0--0-|
Gb|--0-----0--0--0--0--0-----0--0--0--0-|
Db|--2-----2--2--2--2--2-----2--2--2--0-|
Ab|--2-----2--2--2--2--2-----2--2--2--0-|
Eb|--0-----0--0--0--0--0-----0--0--0--0-|

   GTR I,II
eb|--2-----2--2--2--2--2-----2--2-------|
Bb|--3-----3--3--3--3--3-----3--3-------|
Gb|--2-----2--2--2--2--2-----2--2--2--2-|
Db|--0-----0--0--0--0--0-----0--0--0--0-|
Ab|--0-----0--0--0--0--0-----0--0--0--0-|
Eb|--0-----0--0--0--0--0-----0--0-------|
                                   .  .

   GTR I,II
eb|--2-----2--2--2--2--2-----2--2--2--0-|
Bb|--3-----3--3--3--3--3-----3--3--3--0-|
Gb|--2-----2--2--2--2--2-----2--2--2--0-|
Db|--0-----0--0--0--0--0-----0--0--0--0-|
Ab|--0-----0--0--0--0--0-----0--0--0--0-|
Eb|--0-----0--0--0--0--0-----0--0--0--0-|

   GTR I,II
eb|--0-----0--0--0--0--0-----0--0--0--0-|
Bb|--1-----1--1--1--1--1-----1--1--1--0-|
Gb|--0-----0--0--0--0--0-----0--0--0--0-|
Db|--2-----2--2--2--2--2-----2--2--2--0-|
Ab|--3-----3--3--3--3--3-----3--3--3--0-|
Eb|--0-----0--0--0--0--0-----0--0--0--0-|

Bridge

   GTR I,II
eb|-------------------------------------|
Bb|-------------------------------------|
Gb|-------------------------------------|
Db|-------------------------------------|
Ab|----------------------------/5-------|
Eb|--0--------2--------3----------------|

   GTR I,II
eb|--0-----0--0--0--0--0-----0--0--0--0-|
Bb|--0-----0--0--0--0--0-----0--0--0--0-|
Gb|--5-----5--5--5--5--5-----5--5--5--5-|
Db|--5-----5--5--5--5--5-----5--5--5--5-|
Ab|--3-----3--3--3--3--3-----3--3--3--3-|
Eb|--0-----0--0--0--0--0-----0--0--0--0-|

   GTR I,II
eb|--0-----0--0--0--0--0-----0--0--0--0-|
Bb|--0-----0--0--0--0--0-----0--0--0--0-|
Gb|--5-----5--5--5--5--5-----7--7--7--7-|
Db|--5-----5--5--5--5--5-----7--7--7--7-|
Ab|--3-----3--3--3--3--3-----5--5--5--5-|
Eb|--0-----0--0--0--0--0-----0--0--0--0-|

   GTR I,II
eb|-------------------------------------|
Bb|-------------------------------------|
Gb|-------------------------------------|
Db|-------------------------------------|
Ab|--2--2-----2--2-----2--2-----2--2----|
Eb|--0--0-----0--0-----0--0-----0--0----|
     .  .     .  .     .  .     .  .   

   GTR I,II
eb|-------------------------------------|
Bb|-------------------------------------|
Gb|-------------------------------------|
Db|-----------------------------x-------|
Ab|----------------------------/5-------|
Eb|--0--------2--------3----------------|

   GTR I,II
eb|--0-----0--0--0--0--0-----0--0--0--0-|
Bb|--0-----0--0--0--0--0-----0--0--0--0-|
Gb|--5-----5--5--5--5--5-----5--5--5--5-|
Db|--5-----5--5--5--5--5-----5--5--5--5-|
Ab|--3-----3--3--3--3--3-----3--3--3--3-|
Eb|--0-----0--0--0--0--0-----0--0--0--0-|

   GTR I,II
eb|--0-----0--0--0--0--0-----0--0--0--0-|
Bb|--0-----0--0--0--0--0-----0--0--0--0-|
Gb|--5-----5--5--5--5--5-----7--7--7--7-|
Db|--5-----5--5--5--5--5-----7--7--7--7-|
Ab|--3-----3--3--3--3--3-----5--5--5--5-|
Eb|--0-----0--0--0--0--0-----0--0--0--0-|

   GTR I,II
eb|-------------------------------------|
Bb|-------------------------------------|
Gb|-------------------------------------|
Db|-------------------------------------|
Ab|--2--2-----2--2-----2--2-----2--2----|
Eb|--0--0-----0--0-----0--0-----0--0----|
     .  .     .  .     .  .     .  .   

   GTR I,II
eb|-------------------------------------|
Bb|-------------------------------------|
Gb|-------------------------------------|
Db|-------------------------------------|
Ab|----------------------------/5-------|
Eb|--0--------2--------3----------------|

   GTR I
eb|--0-----0--0--0--0--0-----0--0--0--0-|
Bb|--0-----0--0--0--0--0-----0--0--0--0-|
Gb|--5-----5--5--5--5--5-----5--5--5--5-|
Db|--5-----5--5--5--5--5-----5--5--5--5-|
Ab|--3-----3--3--3--3--3-----3--3--3--3-|
Eb|--0-----0--0--0--0--0-----0--0--0--0-|
  |
  |GTR II
eb|--0-----0--0--0--0--0-----0--0--0--0-|
Bb|--5-----5--5--5--5--7-----7--7--7--7-|
Gb|--4-----4--4--4--4--6-----6--6--6--6-|
Db|--2-----2--2--2--2--4-----4--4--4--4-|
Ab|--0-----0--0--0--0--0-----0--0--0--0-|
Eb|--0-----0--0--0--0--0-----0--0--0--0-|

   GTR I
eb|--0-----0--0--0--0--0-----0--0--0--0-|
Bb|--0-----0--0--0--0--0-----0--0--0--0-|
Gb|--5-----5--5--5--5--5-----7--7--7--7-|
Db|--5-----5--5--5--5--5-----7--7--7--7-|
Ab|--3-----3--3--3--3--3-----5--5--5--5-|
Eb|--0-----0--0--0--0--0-----0--0--0--0-|
  |
  |GTR II
eb|--0-----0--0--0--0--0-----0--0--0--0-|
Bb|--8-----8--8--8--8-10----10-10-10--0-|
Gb|--7-----7--7--7--7--9-----9--9--9--0-|
Db|--5-----5--5--5--5--7-----7--7--7--0-|
Ab|--0-----0--0--0--0--0-----0--0--0--0-|
Eb|--0-----0--0--0--0--0-----0--0--0--0-|

Pre Chorus

   GTR I,II
eb|-------------------------------------|
Bb|--5-----5-----5-----7-----7-----7----|
Gb|--4-----4-----4-----6-----6-----6----|
Db|--2-----2-----2-----4-----4-----4----|
Ab|--0-----0-----0-----0-----0-----0----|
Eb|-------------------------------------|
     .     .     .     .     .     .

   GTR I,II
eb|--------------------0-----0-----0--0-|
Bb|--8-----8-----8----10----10----10-10-|
Gb|--7-----7-----7-----9-----9-----9--9-|
Db|--5-----5-----5-----7-----7-----7--7-|
Ab|--0-----0-----0-----0-----0-----0--0-|
Eb|--------------------0-----0-----0--0-|
     .     .     .                  

Chorus 2

   GTR I,II
eb|--0-----0--0--0--0--0-----0--0--0--0-|
Bb|--0-----0--0--0--0--0-----0--0--0--0-|
Gb|--0-----0--0--0--0--0-----0--0--0--0-|
Db|--2-----2--2--2--2--2-----2--2--2--0-|
Ab|--2-----2--2--2--2--2-----2--2--2--0-|
Eb|--0-----0--0--0--0--0-----0--0--0--0-|

   GTR I,II
eb|--2-----2--2--2--2--2-----2--2-------|
Bb|--3-----3--3--3--3--3-----3--3-------|
Gb|--2-----2--2--2--2--2-----2--2--2--2-|
Db|--0-----0--0--0--0--0-----0--0--0--0-|
Ab|--0-----0--0--0--0--0-----0--0--0--0-|
Eb|--0-----0--0--0--0--0-----0--0-------|
                                   .  .

   GTR I,II
eb|--2-----2--2--2--2--2-----2--2--2--0-|
Bb|--3-----3--3--3--3--3-----3--3--3--0-|
Gb|--2-----2--2--2--2--2-----2--2--2--0-|
Db|--0-----0--0--0--0--0-----0--0--0--0-|
Ab|--0-----0--0--0--0--0-----0--0--0--0-|
Eb|--0-----0--0--0--0--0-----0--0--0--0-|

   GTR I,II
eb|--0-----0--0--0--0--0-----0--0--0--0-|
Bb|--1-----1--1--1--1--1-----1--1--1--0-|
Gb|--0-----0--0--0--0--0-----0--0--0--0-|
Db|--2-----2--2--2--2--2-----2--2--2--0-|
Ab|--3-----3--3--3--3--3-----3--3--3--0-|
Eb|--0-----0--0--0--0--0-----0--0--0--0-|

   GTR I,II
eb|--0-----0--0--0--0--0-----0--0--0--0-|
Bb|--0-----0--0--0--0--0-----0--0--0--0-|
Gb|--0-----0--0--0--0--0-----0--0--0--0-|
Db|--2-----2--2--2--2--2-----2--2--2--0-|
Ab|--2-----2--2--2--2--2-----2--2--2--0-|
Eb|--0-----0--0--0--0--0-----0--0--0--0-|

   GTR I,II
eb|--2-----2--2--2--2--2-----2--2-------|
Bb|--3-----3--3--3--3--3-----3--3-------|
Gb|--2-----2--2--2--2--2-----2--2--2--2-|
Db|--0-----0--0--0--0--0-----0--0--0--0-|
Ab|--0-----0--0--0--0--0-----0--0--0--0-|
Eb|--0-----0--0--0--0--0-----0--0-------|
                                   .  .

   GTR I,II
eb|--2-----2--2--2--2--2-----2--2--2--0-|
Bb|--3-----3--3--3--3--3-----3--3--3--0-|
Gb|--2-----2--2--2--2--2-----2--2--2--0-|
Db|--0-----0--0--0--0--0-----0--0--0--0-|
Ab|--0-----0--0--0--0--0-----0--0--0--0-|
Eb|--0-----0--0--0--0--0-----0--0--0--0-|

   GTR I,II
eb|--0-----0--0--0--0--0-----0--0--0--0-|
Bb|--1-----1--1--1--1--1-----1--1--1--0-|
Gb|--0-----0--0--0--0--0-----0--0--0--0-|
Db|--2-----2--2--2--2--2-----2--2--2--0-|
Ab|--3-----3--3--3--3--3-----3--3--3--0-|
Eb|--0-----0--0--0--0--0-----0--0--0--0-|

   GTR I
eb|--0-----0--0--0--0--0-----0--0--0--0-|
Bb|--0-----0--0--0--0--0-----0--0--0--0-|
Gb|--0-----0--0--0--0--0-----0--0--0--0-|
Db|--2-----2--2--2--2--2-----2--2--2--0-|
Ab|--2-----2--2--2--2--2-----2--2--2--0-|
Eb|--0-----0--0--0--0--0-----0--0--0--0-|
  |
  |GTR II
eb|--5--5--7--7--------5--5--7--7-------|
Bb|--------------5--7--------------5--7-|
Gb|-------------------------------------|
Db|-------------------------------------|
Ab|-------------------------------------|
Eb|-------------------------------------|

   GTR I
eb|--0-----0--0--0--0--0-----0--0--0--0-|
Bb|--0-----0--0--0--0--0-----0--0--0--0-|
Gb|--4-----4--4--4--4--4-----4--4--4--0-|
Db|--4-----4--4--4--4--4-----4--4--4--0-|
Ab|--2-----2--2--2--2--2-----2--2--2--0-|
Eb|--0-----0--0--0--0--0-----0--0--0--0-|
  |
  |GTR II
eb|--5--5--7--7--------5--5--7--7-------|
Bb|--------------5--7--------------5--7-|
Gb|-------------------------------------|
Db|-------------------------------------|
Ab|-------------------------------------|
Eb|-------------------------------------|
                                    
   GTR I
eb|--2-----2--2--2--2--2-----2--2--2--0-|
Bb|--3-----3--3--3--3--3-----3--3--3--0-|
Gb|--2-----2--2--2--2--2-----2--2--2--0-|
Db|--0-----0--0--0--0--0-----0--0--0--0-|
Ab|--0-----0--0--0--0--0-----0--0--0--0-|
Eb|--0-----0--0--0--0--0-----0--0--0--0-|
  |
  |GTR II
eb|--5--5--7--7--------5--5--7--7-------|
Bb|--------------5--7--------------5--7-|
Gb|-------------------------------------|
Db|-------------------------------------|
Ab|-------------------------------------|
Eb|-------------------------------------|

   GTR I
eb|--0-----0--0--0--0--0-----0--0--0--0-|
Bb|--1-----1--1--1--1--1-----1--1--1--0-|
Gb|--0-----0--0--0--0--0-----0--0--0--0-|
Db|--2-----2--2--2--2--2-----2--2--2--0-|
Ab|--3-----3--3--3--3--3-----3--3--3--0-|
Eb|--0-----0--0--0--0--0-----0--0--0--0-|
  |
  |GTR II
eb|--5--5--7--7--------5--5--7--7-------|
Bb|--------------5--7--------------5--7-|
Gb|-------------------------------------|
Db|-------------------------------------|
Ab|-------------------------------------|
Eb|-------------------------------------|

   GTR I
eb|--0-----0--0--0--0--0-----0--0--0--0-|
Bb|--0-----0--0--0--0--0-----0--0--0--0-|
Gb|--0-----0--0--0--0--0-----0--0--0--0-|
Db|--2-----2--2--2--2--2-----2--2--2--0-|
Ab|--2-----2--2--2--2--2-----2--2--2--0-|
Eb|--0-----0--0--0--0--0-----0--0--0--0-|
  |
  |GTR II
eb|--5--5--7--7--------5--5--7--7-------|
Bb|--------------5--7--------------5--7-|
Gb|-------------------------------------|
Db|-------------------------------------|
Ab|-------------------------------------|
Eb|-------------------------------------|

   GTR I
eb|--2-----2--2--2--2--2-----2--2-------|
Bb|--3-----3--3--3--3--3-----3--3-------|
Gb|--2-----2--2--2--2--2-----2--2-------|
Db|--0-----0--0--0--0--0-----0--0-------|
Ab|--0-----0--0--0--0--0-----0--0-------|
Eb|--0-----0--0--0--0--0-----0--0-------|
  |
  |GTR II
eb|--5--5--7--7--------5--5--7--7-------|
Bb|--------------5--7--------------5--7-|
Gb|-------------------------------------|
Db|-------------------------------------|
Ab|-------------------------------------|
Eb|-------------------------------------|
                                    
   GTR I
eb|--2-----2--2--2--2--2-----2--2--2--0-|
Bb|--3-----3--3--3--3--3-----3--3--3--0-|
Gb|--2-----2--2--2--2--2-----2--2--2--0-|
Db|--0-----0--0--0--0--0-----0--0--0--0-|
Ab|--0-----0--0--0--0--0-----0--0--0--0-|
Eb|--0-----0--0--0--0--0-----0--0--0--0-|
  |
  |GTR II
eb|--5--5--7--7--------5--5--7--7-------|
Bb|--------------5--7--------------5--7-|
Gb|-------------------------------------|
Db|-------------------------------------|
Ab|-------------------------------------|
Eb|-------------------------------------|

   GTR I
eb|--0-----0--0--0--0--0-----0--0--0--0-|
Bb|--1-----1--1--1--1--1-----1--1--1--0-|
Gb|--0-----0--0--0--0--0-----0--0--0--0-|
Db|--2-----2--2--2--2--2-----2--2--2--0-|
Ab|--3-----3--3--3--3--3-----3--3--3--0-|
Eb|--0-----0--0--0--0--0-----0--0--0--0-|
  |
  |GTR II
eb|--5--5--7--7--------5--5--7--7-------|
Bb|--------------5--7--------------5--7-|
Gb|-------------------------------------|
Db|-------------------------------------|
Ab|-------------------------------------|
Eb|-------------------------------------|

Outro

   GTR I
eb|-------------------------------------|
Bb|-------------------------------------|
Gb|-------------------------------------|
Db|-------------------------------------|
Ab|----------------------------/5-------|
Eb|--0--------2--------3----------------|
  |
  |GTR II
eb|--------------------------------7-10-|
Bb|-------------------------------------|
Gb|-------------------------------------|
Db|-------------------------------------|
Ab|-------------------------------------|
Eb|-------------------------------------|

   GTR I
eb|--0-----0--0--0--0--0-----0--0--0--0-|
Bb|--0-----0--0--0--0--0-----0--0--0--0-|
Gb|--5-----5--5--5--5--5-----5--5--5--5-|
Db|--5-----5--5--5--5--5-----5--5--5--5-|
Ab|--3-----3--3--3--3--3-----3--3--3--3-|
Eb|--0-----0--0--0--0--0-----0--0--0--0-|
  |
  |GTR II
eb|/12------/12-10----------------------|
Bb|-------------------12-------12p10----|
Gb|----------------------------------12-|
Db|-------------------------------------|
Ab|-------------------------------------|
Eb|-------------------------------------|

   GTR I
eb|--0-----0--0--0--0--0-----0--0--0--0-|
Bb|--0-----0--0--0--0--0-----0--0--0--0-|
Gb|--5-----5--5--5--5--5-----7--7--7--7-|
Db|--5-----5--5--5--5--5-----7--7--7--7-|
Ab|--3-----3--3--3--3--3-----5--5--5--5-|
Eb|--0-----0--0--0--0--0-----0--0--0--0-|
  |
  |GTR II
eb|-------------------------------------|
Bb|-10----------------------------------|
Gb|----12-12~------12-10----------------|
Db|----------------------12-10~---------|
Ab|-------------------------------------|
Eb|-------------------------------------|

   GTR I
eb|-------------------------------------|
Bb|-------------------------------------|
Gb|-------------------------------------|
Db|-------------------------------------|
Ab|--2--2-----2--2-----2--2-----2--2----|
Eb|--0--0-----0--0-----0--0-----0--0----|
  |  .  .     .  .     .  .     .  .   
  |GTR II
eb|-12-------12-------12-------12-------|
Bb|-15b------15b------15b------15b------|
Gb|-------------------------------------|
Db|-------------------------------------|
Ab|-------------------------------------|
Eb|-------------------------------------|

   GTR I
eb|-------------------------------------|
Bb|-------------------------------------|
Gb|-------------------------------------|
Db|-------------------------------------|
Ab|--2--2-----2--2-----2----------------|
Eb|--0--0-----0--0-----0----------------|
  |  .  .     .  .     .               
  |GTR II
eb|-12-------12-------12----------------|
Bb|-15b------15b------15b---------------|
Gb|-------------------------------------|
Db|-------------------------------------|
Ab|-------------------------------------|
Eb|-------------------------------------|

| b  bend
| r  release bend
|PH. pinch harmonic
|fbk feedback
| .  palm-mute
| /  slide up
| \  slide down
| h  hammer-on
| p  pull-off
| ~  vibrato
| +  harmonic
| x  Mute note
===============================================================================

Tap to rate this tab
# A B C D E F G H I J K L M N O P Q R S T U V W X Y Z