Song name
# A B C D E F G H I J K L M N O P Q R S T U V W X Y Z

Theory Of A Deadman - Say Im Sorry tab

Say I'm Sorry
Theory Of A Deadman
Theory Of A Deadman (2002)

Say I'm Sorry: written by Tyler Connolly and Chad Kroeger

GTR I - Drop-B Tuning "Tyler Connolly" (c#,G#,E,B,F#,B)
GTR II - Drop-B Tuning "Dave Brenner" (c#,G#,E,B,F#,B)
GTR III - Drop-B Tuning "Fill" (c#,G#,E,B,F#,B)

Intro

   GTR II (w. light dist. and tremelo)
c#|-------------------------------------------------|
G#|--------------3--------3--------------3----------|
 E|-----------------4-------------------------------|
 B|--------4-----------4-----------4----------------|
F#|--2-----------------------0----------------------|
 B|-----------------------------------------0-------|

   GTR II
c#|-------------------------------------------------|
G#|-----------------------3--------------3----------|
 E|--------------4-----------------4--------------4-|
 B|--------4-----------4-----------------------4----|
F#|-------------------------------------------------|
 B|--2----------------------------------------------|

   GTR II
c#|-------------------------------------------------|
G#|--------------3--------3--------------3----------|
 E|-----------------4-------------------------------|
 B|--------4-----------4-----------4----------------|
F#|--2-----------------------0----------------------|
 B|-----------------------------------------0-------|

   GTR II
c#|-------------------------------------------------|
G#|--3----------------------------------------------|
 E|--4----------------------------------------------|
 B|--4----------------------------------------------|
F#|--x----------------------------------------------|
 B|--2----------------------------------------------|

Verse

   GTR II
c#|-------------------------------------------------|
G#|--------------3-----------------------3----------|
 E|-------------------------------------------------|
 B|--------4-----------------------4----------------|
F#|--2-----------------------0----------------------|
 B|-----------------------------------------0-------|

   GTR II
c#|-------------------------------------------------|
G#|-----------------------3-------------------------|
 E|--------------4-----------------------4----------|
 B|--------4-----------4-----------4----------------|
F#|-------------------------------------------------|
 B|--2----------------------------------------------|

   GTR II
c#|-------------------------------------------------|
G#|--------------3-----------------------3----------|
 E|-------------------------------------------------|
 B|--------4-----------------------4----------------|
F#|--2-----------------------0----------------------|
 B|-----------------------------------------0-------|

   GTR II
c#|-------------------------------------------------|
G#|-----------------------3-------------------------|
 E|--------------4-----------------------4--------4-|
 B|--------4-----------4-----------4-----------4----|
F#|-------------------------------------------------|
 B|--2----------------------------------------------|

Pre Chorus

   GTR II
c#|-------------------------------------------------|
G#|--------------3--------3--------------0--------0-|
 E|--------------------4-----------6----------------|
 B|--------4--------------------4--------------7----|
F#|--2-----------------------4----------------------|
 B|-------------------------------------------------|

   GTR I,II
c#|-------------------------------------------------|
G#|-------------------------------------------------|
 E|-------------------------------------------------|
 B|-------------------------------------------------|
F#|-------------------------------------------------|
 B|--2----------------------------------------------|

Chorus

   GTR II,III (Heavy Distortion)
c#|-------------------------------------------------|
G#|-------------------------------------------------|
 E|-------------------------------------------------|
 B|--5--5--5--5--5--5--5--5--9--9--9--9--9--9--9--9-|
F#|--5--5--5--5--5--5--5--5--9--9--9--9--9--9--9--9-|
 B|--5--5--5--5--5--5--5--5--9--9--9--9--9--9--9--9-|

   GTR II,III
c#|-------------------------------------------------|
G#|-------------------------------------------------|
 E|-------------------------------------------------|
 B|--7--7--7--7--7--7--7--7--7--7--7--7--x--0-------|
F#|--7--7--7--7--7--7--7--7--7--7--7--7--x--0-------|
 B|--7--7--7--7--7--7--7--7--7--7--7--7--x--0-------|

   GTR II,III
c#|-------------------------------------------------|
G#|-------------------------------------------------|
 E|-------------------------------------------------|
 B|--5--5--5--5--5--5--5--5--9--9--9--9--9--9--9--9-|
F#|--5--5--5--5--5--5--5--5--9--9--9--9--9--9--9--9-|
 B|--5--5--5--5--5--5--5--5--9--9--9--9--9--9--9--9-|

   GTR II,III
c#|-------------------------------------------------|
G#|-------------------------------------------------|
 E|-------------------------------------------------|
 B|--7--7--7--7--7--7--7--7--7--7--7--7--x--0-------|
F#|--7--7--7--7--7--7--7--7--7--7--7--7--x--0-------|
 B|--7--7--7--7--7--7--7--7--7--7--7--7--x--0-------|

   GTR I (Wah & Tremelo)
c#|--7/10-12-----------------7/10-12----------------|
G#|----------12----------------------12-------------|
 E|-------------------------------------------------|
 B|-------------------------------------------------|
F#|-------------------------------------------------|
 B|-------------------------------------------------|
  |
  |GTR II,III
c#|-------------------------------------------------|
G#|-------------------------------------------------|
 E|-------------------------------------------------|
 B|--5--5--5--5--5--5--5--5--9--9--9--9--9--9--9--9-|
F#|--5--5--5--5--5--5--5--5--9--9--9--9--9--9--9--9-|
 B|--5--5--5--5--5--5--5--5--9--9--9--9--9--9--9--9-|

   GTR I
c#|--7/10--9-----------------7/10--9----------------|
G#|----------10----------------------10-------------|
 E|-------------------------------------------------|
 B|-------------------------------------------------|
F#|-------------------------------------------------|
 B|-------------------------------------------------|
  |
  |GTR II,III
c#|-------------------------------------------------|
G#|-------------------------------------------------|
 E|-------------------------------------------------|
 B|--7--7--7--7--7--7--7--7--7--7--7--7--7--7--7--7-|
F#|--7--7--7--7--7--7--7--7--7--7--7--7--7--7--7--7-|
 B|--7--7--7--7--7--7--7--7--7--7--7--7--7--7--7--7-|

   GTR I
c#|--7/10-12-----------------7/10-12----------------|
G#|----------12----------------------12-------10/12-|
 E|-------------------------------------------------|
 B|-------------------------------------------------|
F#|-------------------------------------------------|
 B|-------------------------------------------------|
  |
  |GTR II,III
c#|-------------------------------------------------|
G#|-------------------------------------------------|
 E|-------------------------------------------------|
 B|--5--5--5--5--5--5--5--5--9--9--9--9--9--9--9--9-|
F#|--5--5--5--5--5--5--5--5--9--9--9--9--9--9--9--9-|
 B|--5--5--5--5--5--5--5--5--9--9--9--9--9--9--9--9-|

   GTR I
c#|-------------------------------------------------|
G#|-10----------------------------------------------|
 E|-------------------------------------------------|
 B|-------------------------------------------------|
F#|-------------------------------------------------|
 B|-------------------------------------------------|
  |
  |GTR II,III
c#|-------------------------------------------------|
G#|-------------------------------------------------|
 E|-------------------------------------------------|
 B|--7----------------------------------------------|
F#|--7----------------------------------------------|
 B|--7----------------------------------------------|

Post Chorus

   GTR I
c#|-------------------------------------------------|
G#|--------------7-----------5-----------3----------|
 E|--------------6-----------4-----------2----------|
 B|--------------4-----------2-----------0----------|
F#|-------------------------------------------------|
 B|-------------------------------------------------|
  |
  |GTR II
c#|-------------------------------------------------|
G#|--------------3-----------------------3----------|
 E|-------------------------------------------------|
 B|--------4-----------------------4----------------|
F#|--2-----------------------0----------------------|
 B|-------------------------------------------------|

   GTR II
c#|-------------------------------------------------|
G#|-------------------------------------------------|
 E|-------------------------------------------------|
 B|-------------------------------------------------|
F#|-------------------------------------------------|
 B|--2----------------------------------------------|

Verse

   GTR I
c#|-------------------------------------------------|
G#|-------------------------------------------------|
 E|--4----------------------------------------------|
 B|--4----------------------------------------------|
F#|--2----------------------------------------------|
 B|-------------------------------------------------|
  |
  |GTR II
c#|-------------------------------------------------|
G#|--------------3-----------------------3----------|
 E|-------------------------------------------------|
 B|--------4-----------------------4----------------|
F#|--2-----------------------0----------------------|
 B|-----------------------------------------0-------|

   GTR II
c#|-------------------------------------------------|
G#|-----------------------3--------------3----------|
 E|--------------4--------------------4-----4-----4-|
 B|--------4-----------4-----------4-----------4----|
F#|-------------------------------------------------|
 B|--2----------------------------------------------|

   GTR II
c#|-------------------------------------------------|
G#|--------------3-----------------------3----------|
 E|-------------------------------------------------|
 B|--------4-----------------------4----------------|
F#|--2-----------------------0----------------------|
 B|-----------------------------------------0-------|

   GTR I
c#|-------------------------------------------------|
G#|-------------------------------------------------|
 E|-------11-----9-----7-----6-----7-----9----------|
 B|--9-----------------------------------------7----|
F#|-------------------------------------------------|
 B|-------------------------------------------------|
  |
  |GTR II
c#|-------------------------------------------------|
G#|-----------------------3-------------------------|
 E|--------------4-----------------------4--------4-|
 B|--------4-----------4-----------4-----------4----|
F#|-------------------------------------------------|
 B|--2----------------------------------------------|

Pre Chorus

   GTR I
c#|-------------------------------------------------|
G#|-------------------------------------------------|
 E|-------------------------------------------------|
 B|--9----------------------------------------------|
F#|-------------------------------------------------|
 B|-------------------------------------------------|
  |
  |GTR II
c#|-------------------------------------------------|
G#|--------------3--------3--------------0--------0-|
 E|--------------------4-----------6----------------|
 B|--------4--------------------4--------------7----|
F#|--2-----------------------4----------------------|
 B|-------------------------------------------------|

   GTR I,II
c#|-------------------------------------------------|
G#|-------------------------------------------------|
 E|-------------------------------------------------|
 B|-------------------------------------------------|
F#|-------------------------------------------------|
 B|--2----------------------------------------------|

Chorus

   GTR II,III (Heavy Distortion)
c#|-------------------------------------------------|
G#|-------------------------------------------------|
 E|-------------------------------------------------|
 B|--5--5--5--5--5--5--5--5--9--9--9--9--9--9--9--9-|
F#|--5--5--5--5--5--5--5--5--9--9--9--9--9--9--9--9-|
 B|--5--5--5--5--5--5--5--5--9--9--9--9--9--9--9--9-|

   GTR II,III
c#|-------------------------------------------------|
G#|-------------------------------------------------|
 E|-------------------------------------------------|
 B|--7--7--7--7--7--7--7--7--7--7--7--7--x--0-------|
F#|--7--7--7--7--7--7--7--7--7--7--7--7--x--0-------|
 B|--7--7--7--7--7--7--7--7--7--7--7--7--x--0-------|

   GTR II,III
c#|-------------------------------------------------|
G#|-------------------------------------------------|
 E|-------------------------------------------------|
 B|--5--5--5--5--5--5--5--5--9--9--9--9--9--9--9--9-|
F#|--5--5--5--5--5--5--5--5--9--9--9--9--9--9--9--9-|
 B|--5--5--5--5--5--5--5--5--9--9--9--9--9--9--9--9-|

   GTR II,III
c#|-------------------------------------------------|
G#|-------------------------------------------------|
 E|-------------------------------------------------|
 B|--7--7--7--7--7--7--7--7--7--7--7--7--x--0-------|
F#|--7--7--7--7--7--7--7--7--7--7--7--7--x--0-------|
 B|--7--7--7--7--7--7--7--7--7--7--7--7--x--0-------|

   GTR I
c#|--7/10-12-----------------7/10-12----------------|
G#|----------12----------------------12-------------|
 E|-------------------------------------------------|
 B|-------------------------------------------------|
F#|-------------------------------------------------|
 B|-------------------------------------------------|
  |
  |GTR II,III
c#|-------------------------------------------------|
G#|-------------------------------------------------|
 E|-------------------------------------------------|
 B|--5--5--5--5--5--5--5--5--9--9--9--9--9--9--9--9-|
F#|--5--5--5--5--5--5--5--5--9--9--9--9--9--9--9--9-|
 B|--5--5--5--5--5--5--5--5--9--9--9--9--9--9--9--9-|

   GTR I
c#|--7/10--9-----------------7/10--9----------------|
G#|----------10----------------------10-------------|
 E|-------------------------------------------------|
 B|-------------------------------------------------|
F#|-------------------------------------------------|
 B|-------------------------------------------------|
  |
  |GTR II,III
c#|-------------------------------------------------|
G#|-------------------------------------------------|
 E|-------------------------------------------------|
 B|--7--7--7--7--7--7--7--7--7--7--7--7--7--7--7--7-|
F#|--7--7--7--7--7--7--7--7--7--7--7--7--7--7--7--7-|
 B|--7--7--7--7--7--7--7--7--7--7--7--7--7--7--7--7-|

   GTR I
c#|--7/10-12-----------------7/10-12----------------|
G#|----------12----------------------12-------10/12-|
 E|-------------------------------------------------|
 B|-------------------------------------------------|
F#|-------------------------------------------------|
 B|-------------------------------------------------|
  |
  |GTR II,III
c#|-------------------------------------------------|
G#|-------------------------------------------------|
 E|-------------------------------------------------|
 B|--5--5--5--5--5--5--5--5--9--9--9--9--9--9--9--9-|
F#|--5--5--5--5--5--5--5--5--9--9--9--9--9--9--9--9-|
 B|--5--5--5--5--5--5--5--5--9--9--9--9--9--9--9--9-|

   GTR I
c#|-------------------------------------------------|
G#|-10----------------------------------------------|
 E|-------------------------------------------------|
 B|-------------------------------------------------|
F#|-------------------------------------------------|
 B|-------------------------------------------------|
  |
  |GTR II,III
c#|-------------------------------------------------|
G#|-------------------------------------------------|
 E|-------------------------------------------------|
 B|--7--7--7--7--7--7--7--7--7--7--7--7--7--7--7--7-|
F#|--7--7--7--7--7--7--7--7--7--7--7--7--7--7--7--7-|
 B|--7--7--7--7--7--7--7--7--7--7--7--7--7--7--7--7-|

Bridge

   GTR I,III
c#|-------------------------------------------------|
G#|-------------------------------------------------|
 E|/14----------11-----------9-----------7----------|
 B|-------------------------------------------------|
F#|-------------------------------------------------|
 B|-------------------------------------------------|
  |
  |GTR II
c#|-------------------------------------------------|
G#|-------------------------------------------------|
 E|-------------------------------------------------|
 B|--9--9--9--9--9--9--9--9-11-11-11-11-11-11-11-11-|
F#|--9--9--9--9--9--9--9--9-11-11-11-11-11-11-11-11-|
 B|--9--9--9--9--9--9--9--9-11-11-11-11-11-11-11-11-|

   GTR I,III
c#|-------------------------------------------------|
G#|-------------------------------------------------|
 E|--6-----------7-----------9-----------9----------|
 B|-----------------------------------------7-------|
F#|-------------------------------------------------|
 B|-------------------------------------------------|
  |
  |GTR II
c#|-------------------------------------------------|
G#|-------------------------------------------------|
 E|-------------------------------------------------|
 B|-12-12-12-12-12-12-12-12-14-14-14-14-14--7-------|
F#|-12-12-12-12-12-12-12-12-14-14-14-14-14--7-------|
 B|-12-12-12-12-12-12-12-12-14-14-14-14-14--7-------|

   GTR I,III
c#|-------------------------------------------------|
G#|-------------------------------------------------|
 E|-------------------------------------------------|
 B|--9----------------------------------------------|
F#|-------------------------------------------------|
 B|-------------------------------------------------|
  |
  |GTR II
c#|-------------------------------------------------|
G#|-------------------------------------------------|
 E|-------------------------------------------------|
 B|--9--9--9--9--9--9--9--9-11-11-11-11-11-11-11-11-|
F#|--9--9--9--9--9--9--9--9-11-11-11-11-11-11-11-11-|
 B|--9--9--9--9--9--9--9--9-11-11-11-11-11-11-11-11-|

   GTR II
c#|-------------------------------------------------|
G#|-------------------------------------------------|
 E|-------------------------------------------------|
 B|-12-12-12-12-12-12-12-12-14-14-14-14-14--7-------|
F#|-12-12-12-12-12-12-12-12-14-14-14-14-14--7-------|
 B|-12-12-12-12-12-12-12-12-14-14-14-14-14--7-------|

   GTR II,III
c#|-------------------------------------------------|
G#|-------------------------------------------------|
 E|-------------------------------------------------|
 B|--9--9--------9--9-------11-11-------11-11-------|
F#|--9--9--9--9--9--9--9--9-11-11-11-11-11-11-11-11-|
 B|--9--9--9--9--9--9--9--9-11-11-11-11-11-11-11-11-|
           .  .        .  .        .  .        .  .

   GTR II,III
c#|-------------------------------------------------|
G#|-------------------------------------------------|
 E|-------------------------------------------------|
 B|-12-12-------12-12-12-12-14-14-14-14-14--7-------|
F#|-12-12-12-12-12-12-12-12-14-14-14-14-14--7-------|
 B|-12-12-12-12-12-12-12-12-14-14-14-14-14--7-------|
           .  .

   GTR II,III
c#|-------------------------------------------------|
G#|-------------------------------------------------|
 E|-------------------------------------------------|
 B|--9--9--------9--9-------11-11-------------------|
F#|--9--9--9--9--9--9--9--9-11-11-11-11-11-11-11-11-|
 B|--9--9--9--9--9--9--9--9-11-11-11-11-11-11-11-11-|
           .  .        .  .        .  .  .  .  .  .

   GTR II,III
c#|-------------------------------------------------|
G#|-------------------------------------------------|
 E|-------------------------------------------------|
 B|-------------------------------------------------|
 B|-14-14-14-14-14-14-14-14-14-14-14-14-14-14-14-14-|
 B|-14-14-14-14-14-14-14-14-14-14-14-14-14-14-14-14-|
     .  .  .  .  .  .  .  .  .  .  .  .  .         

   GTR II,III
    |----------------TRM-----------------|
c#|-------------------------------------------------|
G#|-------------------------------------------------|
 E|-------------------------------------------------|
 B|-------------------------------------------------|
 B|-14-14-14-14-14-14-14-14-14-14-14-14-14----------|
 B|-14-14-14-14-14-14-14-14-14-14-14-14-14----------|
     .  .  .  .  .  .  .  .  .  .  .  .  .         

Chorus 2

   GTR II,III (Heavy Distortion)
c#|-------------------------------------------------|
G#|-------------------------------------------------|
 E|-------------------------------------------------|
 B|--5--5--5--5--5--5--5--5--9--9--9--9--9--9--9--9-|
F#|--5--5--5--5--5--5--5--5--9--9--9--9--9--9--9--9-|
 B|--5--5--5--5--5--5--5--5--9--9--9--9--9--9--9--9-|

   GTR II,III
c#|-------------------------------------------------|
G#|-------------------------------------------------|
 E|-------------------------------------------------|
 B|--7--7--7--7--7--7--7--7--7--7--7--7--x--0-------|
F#|--7--7--7--7--7--7--7--7--7--7--7--7--x--0-------|
 B|--7--7--7--7--7--7--7--7--7--7--7--7--x--0-------|

   GTR II,III
c#|-------------------------------------------------|
G#|-------------------------------------------------|
 E|-------------------------------------------------|
 B|--5--5--5--5--5--5--5--5--9--9--9--9--9--9--9--9-|
F#|--5--5--5--5--5--5--5--5--9--9--9--9--9--9--9--9-|
 B|--5--5--5--5--5--5--5--5--9--9--9--9--9--9--9--9-|

   GTR II,III
c#|-------------------------------------------------|
G#|-------------------------------------------------|
 E|-------------------------------------------------|
 B|--7--7--7--7--7--7--7--7--7--7--7--7--x--0-------|
F#|--7--7--7--7--7--7--7--7--7--7--7--7--x--0-------|
 B|--7--7--7--7--7--7--7--7--7--7--7--7--x--0-------|

   GTR II,III
c#|-------------------------------------------------|
G#|-------------------------------------------------|
 E|-------------------------------------------------|
 B|--5--5--5--5--5--5--5--5--9--9--9--9--9--9--9--9-|
F#|--5--5--5--5--5--5--5--5--9--9--9--9--9--9--9--9-|
 B|--5--5--5--5--5--5--5--5--9--9--9--9--9--9--9--9-|

   GTR II,III
c#|-------------------------------------------------|
G#|-------------------------------------------------|
 E|-------------------------------------------------|
 B|--7--7--7--7--7--7--7--7--7--7--7--7--7--7--7--7-|
F#|--7--7--7--7--7--7--7--7--7--7--7--7--7--7--7--7-|
 B|--7--7--7--7--7--7--7--7--7--7--7--7--7--7--7--7-|

   GTR I
c#|--7/10-12-----------------7/10-12----------------|
G#|----------12----------------------12-------------|
 E|-------------------------------------------------|
 B|-------------------------------------------------|
F#|-------------------------------------------------|
 B|-------------------------------------------------|
  |
  |GTR II,III
c#|-------------------------------------------------|
G#|-------------------------------------------------|
 E|-------------------------------------------------|
 B|--5--5--5--5--5--5--5--5--9--9--9--9--9--9--9--9-|
F#|--5--5--5--5--5--5--5--5--9--9--9--9--9--9--9--9-|
 B|--5--5--5--5--5--5--5--5--9--9--9--9--9--9--9--9-|

   GTR I
c#|--7/10--9-----------------7/10--9----------------|
G#|----------10----------------------10-------------|
 E|-------------------------------------------------|
 B|-------------------------------------------------|
F#|-------------------------------------------------|
 B|-------------------------------------------------|
  |
  |GTR II,III
c#|-------------------------------------------------|
G#|-------------------------------------------------|
 E|-------------------------------------------------|
 B|--7--7--7--7--7--7--7--7--7--7--7--7--7--7--7--7-|
F#|--7--7--7--7--7--7--7--7--7--7--7--7--7--7--7--7-|
 B|--7--7--7--7--7--7--7--7--7--7--7--7--7--7--7--7-|

   GTR I
c#|--7/10-12-----------------7/10-12----------------|
G#|----------12----------------------12-------------|
 E|-------------------------------------------------|
 B|-------------------------------------------------|
F#|-------------------------------------------------|
 B|-------------------------------------------------|
  |
  |GTR II,III
c#|-------------------------------------------------|
G#|-------------------------------------------------|
 E|-------------------------------------------------|
 B|--5--5--5--5--5--5--5--5--9--9--9--9--9--9--9--9-|
F#|--5--5--5--5--5--5--5--5--9--9--9--9--9--9--9--9-|
 B|--5--5--5--5--5--5--5--5--9--9--9--9--9--9--9--9-|

   GTR I
c#|--7/10--9-----------------7/10--9----------------|
G#|----------10----------------------10-------------|
 E|-------------------------------------------------|
 B|-------------------------------------------------|
F#|-------------------------------------------------|
 B|-------------------------------------------------|
  |
  |GTR II,III
c#|-------------------------------------------------|
G#|-------------------------------------------------|
 E|-------------------------------------------------|
 B|--7--7--7--7--7--7--7--7--7--7--7--7--7--7--7--7-|
F#|--7--7--7--7--7--7--7--7--7--7--7--7--7--7--7--7-|
 B|--7--7--7--7--7--7--7--7--7--7--7--7--7--7--7--7-|

   GTR I
c#|--7/10-12-----------------7/10-12----------------|
G#|----------12----------------------12-------10/12-|
 E|-------------------------------------------------|
 B|-------------------------------------------------|
F#|-------------------------------------------------|
 B|-------------------------------------------------|
  |
  |GTR II,III
c#|-------------------------------------------------|
G#|-------------------------------------------------|
 E|-------------------------------------------------|
 B|--5--5--5--5--5--5--5--5--9--9--9--9--9--9--9--9-|
F#|--5--5--5--5--5--5--5--5--9--9--9--9--9--9--9--9-|
 B|--5--5--5--5--5--5--5--5--9--9--9--9--9--9--9--9-|

   GTR I
c#|-------------------------------------------------|
G#|-10----------------------------------------------|
 E|-------------------------------------------------|
 B|-------------------------------------------------|
F#|-------------------------------------------------|
 B|-------------------------------------------------|
  |
  |GTR II,III
c#|-------------------------------------------------|
G#|-------------------------------------------------|
 E|-------------------------------------------------|
 B|--7----------------------------------------------|
F#|--7----------------------------------------------|
 B|--7----------------------------------------------|


| b  bend
| r  release bend
|trp triplet
|PH. pinch harmonic
|fbk feedback
| .  palm-mute
| /  slide up
| \  slide down
| h  hammer-on
| p  pull-off
| ~  vibrato
|(7) harmonic
| x  Mute note
===============================================================================

Tap to rate this tab
 
# A B C D E F G H I J K L M N O P Q R S T U V W X Y Z