Song name
# A B C D E F G H I J K L M N O P Q R S T U V W X Y Z

Theory Of A Deadman - Deadly Game tab

This is not just Chords. I'll show you the Intro by tab. I think this is the easyest way
play the Song, because I do it with simple Power Chords. WATCH OUT: It seems to be with
mutch gain, but don't warp it too much (hope you understand it, my English is not the 
:P). And make sure you got almost the right sound, or it sounds... I better don't sa
;). But now let's go.

e|---------------------------------|
H|-33333333555555551111111133333333|
G|-33333333555555551111111133333333|
D|---------------------------------|
A|---------------------------------|
E|---------------------------------|

e|------------------------------------|
H|-33333333555555551111111111111------|
G|-33333333555555551111111111111------|
D|------------------------------------|
A|------------------------------3-3-3-|
E|------------------------------1-1-1-|

e|----------------------------------|
H|----------------------------------|
G|----------------------------------|       }x2
D|----------------------------------|
A|7-7-7-7-5-5-5-5-3-3-3-3-5-5-5-5---|
E|5-5-5-5-3-3-3-3-1-1-1-1-3-3-3-3---|

e|------------------------------------|
H|------------------------------------|
G|------------------------------------|
D|------------------------------------|
A|7-7-7-7-5-5-5-5-11-11-11-11-9-9-9-9-|
E|5-5-5-5-3-3-3-3--9--9--9--9-7-7-7-7-|

e|--------------------------------|
H|--------------------------------|
G|--------------------------------|
D|--------------------------------|
A|7-7-7-7-7-7-7-7-7-7-7-7-7-3-3-3-|
E|5-5-5-5-5-5-5-5-5-5-5-5-5-1-1-1-|

That's less or more the whole song. The first part of this tab here is also verse (the
parts with H and G string), the last part (above) is almost the whole Pre-Chorus, you
need to add one more part just with the A and E string with A7/E5, A7/B5, A7/B5, and so 
Now let's go to the solo. I don't know how to play the lead guitar solo, so here you see
rythm solo:

e|------------------------|
H|------------------------|
G|------------------------|
D|--------------------2-2-|
A|5-3-5-7-9-7-5-3-5-7-2-2-|
E|3-1-3-5-7-5-3-1-3-5-0-0-|

And then play the last part of the first session again.

That's it, I hope you enjoied it and understood everything...
Tap to rate this tab
 
# A B C D E F G H I J K L M N O P Q R S T U V W X Y Z