Song name
# A B C D E F G H I J K L M N O P Q R S T U V W X Y Z

Theory Of A Deadman - Any Other Way tab

Any Other Way
Theory of A Deadman
Theory of A Deadman (2002)

Words & Music by Tyler Connolly

GTR I - Drop B Tuning Electric "Tyler Connolly" (c#,G#,E,B,F#,B)
GTR II - Drop B Tuning Electric "Dave Brenner" (c#,G#,E,B,F#,B)
GTR III - Drop B Tuning Acoustic "Tyler Connolly" (c#,G#,E,B,F#,B)

Intro

   GTR I
c#|-------------------------------------------------|
G#|-------------------------------------------------|
 E|-------------------------------------------------|
 B|-------------------------------------------------|
F#|--------------9----------------------------------|
 B|--0--0--9-10----10--9--0-------------------------|

   GTR I
c#|-------------------------------------------------|
G#|-------------------------------------------------|
 E|-------------------------------------------------|
 B|-------------------------------------------------|
F#|--------------9----------------------------------|
 B|--0--0--9-10----10--9--0-----------------6~------|

   GTR I
c#|-------------------------------------------------|
G#|-------------------------------------------------|
 E|-------------------------------------------------|
 B|-------------------------------------------------|
F#|--------------9----------------------------------|
 B|--0--0--9-10----10--9--0-------------------------|

   GTR I
c#|-------------------------------------------------|
G#|-------------------------------------------------|
 E|-------------------------------------------------|
 B|-----------------------------------------3-------|
F#|--------------9--------------------------3-------|
 B|--0--0--9-10----10--9--0-----------------3-------|
  |
  |GTR II
c#|-------------------------------------------------|
G#|-------------------------------------------------|
 E|-------------------------------------------------|
 B|-----------------------------------------3-------|
F#|-----------------------------------------3-------|
 B|-----------------------------------------3-------|

Main Riff

   GTR I,II
c#|-------------------------------------------------|
G#|-------------------------------------------------|
 E|-------------------------------------------------|
 B|--0--0-----------------0-----------------6-------|
F#|--0--0--------9--------0--0--0--0--0--0--6-------|
 B|--0--0--9-10----10--9--0--0--0--0--0--0--6-------|
           .  .     .  .     .  .  .  .  .
   GTR I
c#|-------------------------------------------------|
G#|-------------------------------------------------|
 E|-------------------------------------------------|
 B|--0--0-----------------0-------10\-7-10/12~------|
F#|--0--0--------9--------0-------------------------|
 B|--0--0--9-10----10--9--0-------------------------|
  |        .  .     .  .
  |GTR II
c#|-------------------------------------------------|
G#|-------------------------------------------------|
 E|-------------------------------------------------|
 B|--0--0-----------------0-----------------3-------|
F#|--0--0--------9--------0--0--0--5--0--3--3-------|
 B|--0--0--9-10----10--9--0--0--0--5--0--3--3-------|
           .  .     .  .     .  .  .  .  .

   GTR I,II
c#|-------------------------------------------------|
G#|-------------------------------------------------|
 E|-------------------------------------------------|
 B|--0--0-----------------0-----------------6-------|
F#|--0--0--------9--------0--0--0--0--0--0--6-------|
 B|--0--0--9-10----10--9--0--0--0--0--0--0--6-------|
           .  .     .  .     .  .  .  .  .
   GTR I
c#|-------------------------------------------------|
G#|-------------------------------------------------|
 E|-------------------------------------------------|
 B|--0--0-----------------0--------9/10--9\-7~------|
F#|--0--0--------9--------0-------------------------|
 B|--0--0--9-10----10--9--0-------------------------|
  |        .  .     .  .
  |GTR II
c#|-------------------------------------------------|
G#|-------------------------------------------------|
 E|-------------------------------------------------|
 B|--0--0-----------------0--------5b---r5--3-------|
F#|--0--0--------9--------0--0--0--5b---r5--3-------|
 B|--0--0--9-10----10--9--0--0--0--5b---r5--3-------|
           .  .     .  .     .  .         

Verse

   GTR II
c#|-------------------------------------------------|
G#|-------------------------------------------------|
 E|-------------------------------------------------|
 B|-------------------------------------------------|
F#|--0--0--------9--------0--------0-----0----------|
 B|--0--0--9-10----10--9--0--------0-----0--6~------|
     .  .  .  .  .  .  .  .        .     .

   GTR II
c#|-------------------------------------------------|
G#|-------------------------------------------------|
 E|-------------------------------------------------|
 B|-------------------------------------------------|
F#|--0--0--------9--------0-----0--5--0--3----------|
 B|--0--0--9-10----10--9--0-----0--5--0--3--3~------|
     .  .  .  .  .  .  .  .     .  .  .  .

   GTR II
c#|-------------------------------------------------|
G#|-------------------------------------------------|
 E|-------------------------------------------------|
 B|-------------------------------------------------|
F#|--0--0--------9--------0--------0-----0----------|
 B|--0--0--9-10----10--9--0--------0-----0--6~------|
     .  .  .  .  .  .  .  .        .     .

   GTR I
c#|-------------------------------------------------|
G#|-------------------------------------------------|
 E|-------------------------------------------------|
 B|--------------------------------9/10--9\-7~------|
F#|-------------------------------------------------|
 B|-------------------------------------------------|
  |                       
  |GTR II
c#|-------------------------------------------------|
G#|-------------------------------------------------|
 E|-------------------------------------------------|
 B|-------------------------------------------------|
F#|--0--0--------9--------0-----0-------------------|
 B|--0--0--9-10----10--9--0-----0--5b---r5--3~------|
     .  .  .  .  .  .  .  .        .     .

Verse 2

   GTR I,II
c#|-------------------------------------------------|
G#|-------------------------------------------------|
 E|-------------------------------------------------|
 B|-----------------------------------------3-------|
F#|--0--0--------9--------0--0--0--5--0--3--3-------|
 B|--0--0--9-10----10--9--0--0--0--5--0--3--3-------|
     .  .  .  .     .  .  .  .  .  .  .  .

   GTR I,II
c#|-------------------------------------------------|
G#|-------------------------------------------------|
 E|-------------------------------------------------|
 B|-----------------------------------------3-------|
F#|--0--0--------9--------0--0--0--5--0--3--3-------|
 B|--0--0--9-10----10--9--0--0--0--5--0--3--3-------|
     .  .  .  .     .  .  .  .  .  .  .  .

   GTR I,II
c#|-------------------------------------------------|
G#|-------------------------------------------------|
 E|-------------------------------------------------|
 B|-----------------------------------------3-------|
F#|--0--0--------9--------0--0--0--5--0--3--3-------|
 B|--0--0--9-10----10--9--0--0--0--5--0--3--3-------|
     .  .  .  .     .  .  .  .  .  .  .  .

   GTR I,II
c#|-------------------------------------------------|
G#|-------------------------------------------------|
 E|-------------------------------------------------|
 B|--------------------------------5--------3-------|
F#|--0--0--------9--------0--0--0--5--------3-------|
 B|--0--0--9-10----10--9--0--0--0--5--------3-------|
     .  .  .  .     .  .  .  .  .         

Pre Chorus

   GTR I,II
c#|-------------------------------------------------|
G#|-------------------------------------------------|
 E|-------------------------------------------------|
 B|--5-----5-----5-----5-----5-----5-----5-----5----|
F#|--5-----5-----5-----5-----5-----5-----5-----5----|
 B|--5-----5-----5-----5-----5-----5-----5-----5----|

   GTR I,II
c#|-------------------------------------------------|
G#|-------------------------------------------------|
 E|-------------------------------------------------|
 B|--3-----3-----3-----3-----3-----3-----3-----3----|
F#|--3-----3-----3-----3-----3-----3-----3-----3----|
 B|--3-----3-----3-----3-----3-----3-----3-----3----|

   GTR I,II
c#|-------------------------------------------------|
G#|-------------------------------------------------|
 E|-------------------------------------------------|
 B|--5-----5-----5-----5-----5-----5-----5-----5----|
F#|--5-----5-----5-----5-----5-----5-----5-----5----|
 B|--5-----5-----5-----5-----5-----5-----5-----5----|

   GTR I,II
c#|-------------------------------------------------|
G#|-------------------------------------------------|
 E|-------------------------------------------------|
 B|--3-----3-----3-----3-----3-----3-----3-----3----|
F#|--3-----3-----3-----3-----3-----3-----3-----3----|
 B|--3-----3-----3-----3-----3-----3-----3-----3----|

Main Riff
Verse
Verse 2
Pre Chorus

Chorus

   GTR I,II
c#|-------------------------------------------------|
G#|--3-----3-----3-----3-----3-----3-----3-----3----|
 E|--2-----2-----2-----2-----2-----2-----2-----2----|
 B|--0-----0-----0-----0-----0-----0-----0-----0----|
F#|--0-----0-----0-----0-----0-----0-----0-----0----|
 B|--0-----0-----0-----0-----0-----0-----0-----0----|

   GTR I,II
c#|-------------------------------------------------|
G#|-------------------------------------------------|
 E|-------------------------------------------------|
 B|--3-----3-----3-----3-----3-----3-----3-----2----|
F#|--3-----3-----3-----3-----3-----3-----3-----2----|
 B|--3-----3-----3-----3-----3-----3-----3-----2----|

   GTR I,II
c#|-------------------------------------------------|
G#|--3-----3-----3-----3-----3-----3-----3-----3----|
 E|--2-----2-----2-----2-----2-----2-----2-----2----|
 B|--0-----0-----0-----0-----0-----0-----0-----0----|
F#|--0-----0-----0-----0-----0-----0-----0-----0----|
 B|--0-----0-----0-----0-----0-----0-----0-----0----|

   GTR I,II
c#|-------------------------------------------------|
G#|-------------------------------------------------|
 E|-------------------------------------------------|
 B|--3-----3-----3-----3-----3-----3-----3--5-------|
F#|--3-----3-----3-----3-----3-----3-----3--5-------|
 B|--3-----3-----3-----3-----3-----3-----3--5-------|

   GTR I,II
c#|-------------------------------------------------|
G#|--3-----3-----3-----3-----3-----3-----3-----3----|
 E|--2-----2-----2-----2-----2-----2-----2-----2----|
 B|--0-----0-----0-----0-----0-----0-----0-----0----|
F#|--0-----0-----0-----0-----0-----0-----0-----0----|
 B|--0-----0-----0-----0-----0-----0-----0-----0----|

   GTR I,II
c#|-------------------------------------------------|
G#|-------------------------------------------------|
 E|-------------------------------------------------|
 B|--3-----3-----3-----3-----3-----3-----3-----2----|
F#|--3-----3-----3-----3-----3-----3-----3-----2----|
 B|--3-----3-----3-----3-----3-----3-----3-----2----|

   GTR I,II
c#|-------------------------------------------------|
G#|--3-----3-----3-----3-----3-----3-----3-----3----|
 E|--2-----2-----2-----2-----2-----2-----2-----2----|
 B|--0-----0-----0-----0-----0-----0-----0-----0----|
F#|--0-----0-----0-----0-----0-----0-----0-----0----|
 B|--0-----0-----0-----0-----0-----0-----0-----0----|

   GTR I,II
c#|-------------------------------------------------|
G#|-------------------------------------------------|
 E|-------------------------------------------------|
 B|--3-----3-----3-----3-----3-----3-----3-----3----|
F#|--3-----3-----3-----3-----3-----3-----3-----3----|
 B|--3-----3-----3-----3-----3-----3-----3-----3----|

Bridge

   GTR I,II
c#|-------------------------------------------------|
G#|-------------------------------------------------|
 E|-------------------------------------------------|
 B|--5--------3--------4--------5--------3--------4-|
F#|--5--------3--------4--------5--------3--------4-|
 B|--5--------3--------4--------5--------3--------4-|

   GTR I,II
c#|-------------------------------------------------|
G#|-------------------------------------------------|
 E|--------------------------------------7----------|
 B|--------5--------3--------4-----------7----------|
F#|--------5--------3--------4-----0-----5----------|
 B|--------5--------3--------4-----0----------------|
                                   .

   GTR I
c#|-------------------------------------------------|
G#|-------------------------------------------------|
 E|-12-------10-------11-------12-------10-------11-|
 B|-12-------10-------11-------12-------10-------11-|
F#|-10--------8--------9-------10--------8--------9-|
 B|-------------------------------------------------|
  |
  |GTR II
c#|-------------------------------------------------|
G#|-------------------------------------------------|
 E|-------------------------------------------------|
 B|--5--------3--------4--------5--------3--------4-|
F#|--5--------3--------4--------5--------3--------4-|
 B|--5--------3--------4--------5--------3--------4-|

   GTR I
c#|-------------------------------------------------|
G#|-------------------------------------15----------|
 E|-------12-------10-------11----------14----------|
 B|-------12-------10-------11----------12----------|
F#|-------10--------8--------9-----0----------------|
 B|--------------------------------0----------------|
  |                                .
  |GTR II
c#|-------------------------------------------------|
G#|-------------------------------------------------|
 E|--------------------------------------7----------|
 B|--------5--------3--------4-----------7----------|
F#|--------5--------3--------4-----0-----5----------|
 B|--------5--------3--------4-----0----------------|
                                   .

Interlude

   GTR III
c#|-------------------------------------------------|
G#|-------------------------------------------------|
 E|-------------------------------------------------|
 B|-/5-----------------------------------5\---------|
F#|-/5-----------------------------------5\---------|
 B|-------------------------------------------------|

   GTR III
c#|-------------------------------------------------|
G#|-------------------------------------------------|
 E|-------------------------------------------------|
 B|--3-----------------------------------3/---------|
F#|--3-----------------------------------3/---------|
 B|-------------------------------------------------|

   GTR III
c#|-------------------------------------------------|
G#|-------------------------------------------------|
 E|-------------------------------------------------|
 B|--5-----------------------------------5\---------|
F#|--5-----------------------------------5\---------|
 B|-------------------------------------------------|

   GTR III
c#|-------------------------------------------------|
G#|-------------------------------------------------|
 E|-------------------------------------------------|
 B|--3-----------------------------------3/---------|
F#|--3-----------------------------------3/---------|
 B|-------------------------------------------------|

   GTR I,II
c#|-------------------------------------------------|
G#|-------------------------------------------------|
 E|-------------------------------------------------|
 B|-------------------------------------------------|
F#|--5-----5-----5-----5-----5-----5-----5-----5----|
 B|--5-----5-----5-----5-----5-----5-----5-----5----|
  |  .     .     .     .     .     .     .     .
  |GTR III
c#|-------------------------------------------------|
G#|-------------------------------------------------|
 E|-------------------------------------------------|
 B|--5-----------------------------------5\---------|
F#|--5-----------------------------------5\---------|
 B|-------------------------------------------------|

   GTR I,II
c#|-------------------------------------------------|
G#|-------------------------------------------------|
 E|-------------------------------------------------|
 B|-------------------------------------------------|
F#|--3-----3-----3-----3-----3-----3-----3-----3----|
 B|--3-----3-----3-----3-----3-----3-----3-----3----|
  |  .     .     .     .     .     .     .     .
  |GTR III
c#|-------------------------------------------------|
G#|-------------------------------------------------|
 E|-------------------------------------------------|
 B|--3-----------------------------------3/---------|
F#|--3-----------------------------------3/---------|
 B|-------------------------------------------------|

   GTR I,II
c#|-------------------------------------------------|
G#|-------------------------------------------------|
 E|-------------------------------------------------|
 B|--------------------------5-----5-----5-----5----|
F#|--5-----5-----5-----5-----5-----5-----5-----5----|
 B|--5-----5-----5-----5-----5-----5-----5-----5----|
  |  .     .     .     .                          
  |GTR III
c#|-------------------------------------------------|
G#|-------------------------------------------------|
 E|-------------------------------------------------|
 B|--5-----------------------------------5\---------|
F#|--5-----------------------------------5\---------|
 B|-------------------------------------------------|

   GTR III
c#|-------------------------------------------------|
G#|-------------------------------------------------|
 E|-------------------------------------------------|
 B|--3-----------2-----------1-----------0----------|
F#|--3-----------2-----------1-----------0----------|
 B|-------------------------------------------------|

Verse 3

   GTR I,II
c#|-------------------------------------------------|
G#|-------------------------------------------------|
 E|-------------------------------------------------|
 B|--------------------------------5--------3-------|
F#|--0--0--------9--------0--0--0--5--0--3--3-------|
 B|--0--0--9-10----10--9--0--0--0--5--0--3--3-------|
     .  .  .  .     .  .  .  .  .     .  .

   GTR I,II
c#|-------------------------------------------------|
G#|-------------------------------------------------|
 E|-------------------------------------------------|
 B|--------------------------------5-----3--3-------|
F#|--0--0--------9--------0--0--0--5--0--3--3-------|
 B|--0--0--9-10----10--9--0--0--0--5--0--3--3-------|
     .  .  .  .     .  .  .  .  .     .   

   GTR I,II
c#|-------------------------------------------------|
G#|-------------------------------------------------|
 E|-------------------------------------------------|
 B|--------------------------------5--------3-------|
F#|--0--0--------9--------0--0--0--5--0--3--3-------|
 B|--0--0--9-10----10--9--0--0--0--5--0--3--3-------|
     .  .  .  .     .  .  .  .  .     .  .

   GTR I,II
c#|-------------------------------------------------|
G#|-------------------------------------------------|
 E|-------------------------------------------------|
 B|-------------------------------------------------|
F#|--0--0--------9--------0--5-----5-----5-----5----|
 B|--0--0--9-10----10--9--0--5-----5-----5-----5----|
     .  .  .  .     .  .  .  .     .     .     .

Chorus 2

   GTR I,II
c#|-------------------------------------------------|
G#|--3-----3-----3-----3-----3-----3-----3-----3----|
 E|--2-----2-----2-----2-----2-----2-----2-----2----|
 B|--0-----0-----0-----0-----0-----0-----0-----0----|
F#|--0-----0-----0-----0-----0-----0-----0-----0----|
 B|--0-----0-----0-----0-----0-----0-----0-----0----|

   GTR I,II
c#|-------------------------------------------------|
G#|-------------------------------------------------|
 E|-------------------------------------------------|
 B|--3-----3-----3-----3-----3-----3-----3-----2----|
F#|--3-----3-----3-----3-----3-----3-----3-----2----|
 B|--3-----3-----3-----3-----3-----3-----3-----2----|

   GTR I,II
c#|-------------------------------------------------|
G#|--3-----3-----3-----3-----3-----3-----3-----3----|
 E|--2-----2-----2-----2-----2-----2-----2-----2----|
 B|--0-----0-----0-----0-----0-----0-----0-----0----|
F#|--0-----0-----0-----0-----0-----0-----0-----0----|
 B|--0-----0-----0-----0-----0-----0-----0-----0----|

   GTR I,II
c#|-------------------------------------------------|
G#|-------------------------------------------------|
 E|-------------------------------------------------|
 B|--3-----3-----3-----3-----3-----3-----3--5-------|
F#|--3-----3-----3-----3-----3-----3-----3--5-------|
 B|--3-----3-----3-----3-----3-----3-----3--5-------|

   GTR I,II
c#|-------------------------------------------------|
G#|--3-----3-----3-----3-----3-----3-----3-----3----|
 E|--2-----2-----2-----2-----2-----2-----2-----2----|
 B|--0-----0-----0-----0-----0-----0-----0-----0----|
F#|--0-----0-----0-----0-----0-----0-----0-----0----|
 B|--0-----0-----0-----0-----0-----0-----0-----0----|

   GTR I,II
c#|-------------------------------------------------|
G#|-------------------------------------------------|
 E|-------------------------------------------------|
 B|--3-----3-----3-----3-----3-----3-----3-----2----|
F#|--3-----3-----3-----3-----3-----3-----3-----2----|
 B|--3-----3-----3-----3-----3-----3-----3-----2----|

   GTR I,II
c#|-------------------------------------------------|
G#|--3-----3-----3-----3-----3-----3-----3-----3----|
 E|--2-----2-----2-----2-----2-----2-----2-----2----|
 B|--0-----0-----0-----0-----0-----0-----0-----0----|
F#|--0-----0-----0-----0-----0-----0-----0-----0----|
 B|--0-----0-----0-----0-----0-----0-----0-----0----|

   GTR I,II
c#|-------------------------------------------------|
G#|-------------------------------------------------|
 E|-------------------------------------------------|
 B|--3-----3-----3-----3-----3-----3-----3--5-------|
F#|--3-----3-----3-----3-----3-----3-----3--5-------|
 B|--3-----3-----3-----3-----3-----3-----3--5-------|

   GTR I,II
c#|-------------------------------------------------|
G#|--3-----3-----3-----3-----3-----3-----3-----3----|
 E|--2-----2-----2-----2-----2-----2-----2-----2----|
 B|--0-----0-----0-----0-----0-----0-----0-----0----|
F#|--0-----0-----0-----0-----0-----0-----0-----0----|
 B|--0-----0-----0-----0-----0-----0-----0-----0----|

   GTR I,II
c#|-------------------------------------------------|
G#|-------------------------------------------------|
 E|-------------------------------------------------|
 B|--3-----3-----3-----3-----3-----3-----3-----2----|
F#|--3-----3-----3-----3-----3-----3-----3-----2----|
 B|--3-----3-----3-----3-----3-----3-----3-----2----|

   GTR I,II
c#|-------------------------------------------------|
G#|--3-----3-----3-----3-----3-----3-----3-----3----|
 E|--2-----2-----2-----2-----2-----2-----2-----2----|
 B|--0-----0-----0-----0-----0-----0-----0-----0----|
F#|--0-----0-----0-----0-----0-----0-----0-----0----|
 B|--0-----0-----0-----0-----0-----0-----0-----0----|

   GTR I,II
c#|-------------------------------------------------|
G#|-------------------------------------------------|
 E|-------------------------------------------------|
 B|--3-----3-----3-----3-----3-----3-----3--5-------|
F#|--3-----3-----3-----3-----3-----3-----3--5-------|
 B|--3-----3-----3-----3-----3-----3-----3--5-------|

   GTR I,II
c#|-------------------------------------------------|
G#|--3-----3-----3-----3-----3-----3-----3-----3----|
 E|--2-----2-----2-----2-----2-----2-----2-----2----|
 B|--0-----0-----0-----0-----0-----0-----0-----0----|
F#|--0-----0-----0-----0-----0-----0-----0-----0----|
 B|--0-----0-----0-----0-----0-----0-----0-----0----|

   GTR I,II
c#|-------------------------------------------------|
G#|-------------------------------------------------|
 E|-------------------------------------------------|
 B|--3-----3-----3-----3-----3-----3-----3-----3----|
F#|--3-----3-----3-----3-----3-----3-----3-----3----|
 B|--3-----3-----3-----3-----3-----3-----3-----3----|

   GTR I,II
c#|-------------------------------------------------|
G#|--3-----3-----3-----3-----3-----3-----3-----3----|
 E|--2-----2-----2-----2-----2-----2-----2-----2----|
 B|--0-----0-----0-----0-----0-----0-----0-----0----|
F#|--0-----0-----0-----0-----0-----0-----0-----0----|
 B|--0-----0-----0-----0-----0-----0-----0-----0----|

   GTR I,II
c#|-------------------------------------------------|
G#|-------------------------------------------------|
 E|-------------------------------------------------|
 B|--3-----3-----3-----3-----3-----3-----3-----3----|
F#|--3-----3-----3-----3-----3-----3-----3-----3----|
 B|--3-----3-----3-----3-----3-----3-----3-----3----|

Outro

   GTR I
c#|-------------------------------------------------|
G#|-------------------------------------------------|
 E|-12-------10-------11-------12-------10-------11-|
 B|-12-------10-------11-------12-------10-------11-|
F#|-10--------8--------9-------10--------8--------9-|
 B|-------------------------------------------------|
  |
  |GTR II
c#|-------------------------------------------------|
G#|-------------------------------------------------|
 E|-------------------------------------------------|
 B|--5--------3--------4--------5--------3--------4-|
F#|--5--------3--------4--------5--------3--------4-|
 B|--5--------3--------4--------5--------3--------4-|

   GTR I
c#|-------------------------------------------------|
G#|-------------------------------------15----------|
 E|-------12-------10-------11----------14----------|
 B|-------12-------10-------11----------12----------|
F#|-------10--------8--------9-----0----------------|
 B|--------------------------------0----------------|
  |                                .
  |GTR II
c#|-------------------------------------------------|
G#|-------------------------------------------------|
 E|--------------------------------------7----------|
 B|--------5--------3--------4-----------7----------|
F#|--------5--------3--------4-----0-----5----------|
 B|--------5--------3--------4-----0----------------|
                                   .

   GTR I,II
c#|-------------------------------------------------|
G#|-------------------------------------------------|
 E|-------------------------------------------------|
 B|--0--0-----------------0-----------------3-------|
F#|--0--0--------9--------0--0--0--0--0--0--3-------|
 B|--0--0--9-10----10--9--0--0--0--0--0--0--3-------|
           .  .     .  .     .  .  .  .  .
   GTR I
c#|-------------------------------------------------|
G#|-------------------------------------------------|
 E|-------------------------------------------------|
 B|--0--0-----------------0-------10\-7-10/12~------|
F#|--0--0--------9--------0-------------------------|
 B|--0--0--9-10----10--9--0-------------------------|
  |        .  .     .  .
  |GTR II
c#|-------------------------------------------------|
G#|-------------------------------------------------|
 E|-------------------------------------------------|
 B|--0--0-----------------0-----------------6-------|
F#|--0--0--------9--------0-----------------6-------|
 B|--0--0--9-10----10--9--0-----------------6-------|
           .  .     .  .                   

   GTR I,II
c#|-------------------------------------------------|
G#|-------------------------------------------------|
 E|-------------------------------------------------|
 B|--0--0-----------------0-----------------3-------|
F#|--0--0--------9--------0--0--0--0--0--0--3-------|
 B|--0--0--9-10----10--9--0--0--0--0--0--0--3-------|
           .  .     .  .     .  .  .  .  .
   GTR I
c#|-------------------------------------------------|
G#|-------------------------------------------------|
 E|-------------------------------------------------|
 B|--0--0-----------------0--------9/10--9\-7~------|
F#|--0--0--------9--------0-------------------------|
 B|--0--0--9-10----10--9--0-------------------------|
  |        .  .     .  .
  |GTR II
c#|-------------------------------------------------|
G#|-------------------------------------------------|
 E|-------------------------------------------------|
 B|--0--0-----------------0--------5b---r5--4-------|
F#|--0--0--------9--------0--0--0--5b---r5--4-------|
 B|--0--0--9-10----10--9--0--0--0--5b---r5--4-------|
           .  .     .  .     .  .         


| b  bend
| r  release bend
|trp triplet
|PH. pinch harmonic
|fbk feedback
| .  palm-mute
| /  slide up
| \  slide down
| h  hammer-on
| p  pull-off
| ~  vibrato
|(7) harmonic
| x  Mute note
===============================================================================
Tap to rate this tab
 
# A B C D E F G H I J K L M N O P Q R S T U V W X Y Z