Theory Of A Deadman - Point To Prove tab

Point To Prove
Theory of A Deadman
Theory of A Deadman (2002)

Words & Music by Tyler Connolly and Chad Kroeger

GTR I - Drop C# Tuning "Tyler Connolly" (d#,A#,F#,C#,G#,C#)
GTR II - Drop C# Tuning "Dave Brenner" (d#,A#,F#,C#,G#,C#)
GTR III - Drop C# Tuning "Tyler Connolly" (d#,A#,F#,C#,G#,C#)

Intro

   GTR I
d#|-------------------------------------------------|
A#|--------5-----5--5--------5-----5--5-----5--5--5-|
F#|--------5-----5--5--------5-----5--5-----4--4--4-|
C#|--3--3-------------------------------------------|
G#|--3--3--------------x--x-------------------------|
C#|--3--3--------------x--x-------------------------|
  |
  |GTR II,III
d#|-------------------------------------------------|
A#|-------------------------------------------------|
F#|-------------------------------------------------|
C#|--3--3-------------------------------------------|
G#|--3--3-------------------------------------------|
C#|--3--3-------------------------------------------|

   GTR I
d#|--------5-----5--5--------5-----5----------------|
A#|--------5-----5--5--------5-----5----------------|
F#|-------------------------------------------------|
C#|--0--0----------------------------------12\------|
G#|--0--0--------------x--x-----------0--2-12\------|
C#|--0--0--------------x--x-----------0--2-12\------|
  |                                   .  .
  |GTR II,III
d#|-------------------------------------------------|
A#|-------------------------------------------------|
F#|-------------------------------------------------|
C#|--0--0----------------------------------12\------|
G#|--0--0-----------------------------0--2-12\------|
C#|--0--0-----------------------------0--2-12\------|
                                      .  .

Main Riff

   GTR I,II
d#|-------------------------------------------------|
A#|--------5-----5--5--------5-----5--5-------------|
F#|--------5-----5--5--------5-----5--5-------------|
C#|-----------------------------------------5-------|
G#|--3--3--------------3--3--------------3--5-------|
C#|--3--3--------------3--3--------------3--5-------|
  |  .  .              .  .              .
  |GTR III
d#|-------12----12----12----12----12----12----12----|
A#|----13----13----13----13----13----13----13----13-|
F#|-------------------------------------------------|
C#|-------------------------------------------------|
G#|-------------------------------------------------|
C#|-------------------------------------------------|
   
   GTR I,II
d#|--------5-----5--5--------5-----5--5-------------|
A#|--------5-----5--5--------5-----5--5-------------|
F#|-----------------------------------------4--4--4-|
C#|-----------------------------------------5--5--5-|
G#|--0--0--------------0--0-------------------------|
C#|--0--0--------------0--0-------------------------|
  |  .  .              .  .
  |GTR III
d#|-12----12----12----12----12----12----12----12----|
A#|----13----13----13----13----13----13----13----13-|
F#|-------------------------------------------------|
C#|-------------------------------------------------|
G#|-------------------------------------------------|
C#|-------------------------------------------------|

Verse

   GTR II
d#|-------------------------------------------------|
A#|-------------------------------------------------|
F#|-------------------------------------------------|
C#|-----------------------------------------5-------|
G#|-----3--3-----3--3-----3--3-----3--3-----5-------|
C#|-----3--3-----3--3-----3--3-----3--3-----5-------|
        .  .     .  .     .  .     .  .

   GTR II
d#|-------------------------------------------------|
A#|-------------------------------------------------|
F#|-------------------------------------------------|
C#|-----------------------------------------2-------|
G#|-----0--0-----0--0-----0--0-----0--0-----2-------|
C#|-----0--0-----0--0-----0--0-----0--0-----2-------|
        .  .     .  .     .  .     .  .

Main Riff
Verse

Pre Chorus

   GTR I,II
d#|-------------------------------------------------|
A#|--------5-----5--5--------5-----5--5-------------|
F#|--------5-----5--5--------5-----5--5-------------|
C#|-----------------------------------------5-------|
G#|--3--3--------------3--3--------------3--5-------|
C#|--3--3--------------3--3--------------3--5-------|
  |  .  .              .  .              .
  |GTR III
d#|-------12----12----12----12----12----12----12----|
A#|----13----13----13----13----13----13----13----13-|
F#|-------------------------------------------------|
C#|-------------------------------------------------|
G#|-------------------------------------------------|
C#|-------------------------------------------------|

   GTR I,II
d#|--------5-----5--5-------------------------------|
A#|--------5-----5--5-------------------------------|
F#|-------------------------------------------------|
C#|-----------------------------------0--0--0--0--0-|
G#|--0--0--------------0--0--0--0--0--0--0--0--0--0-|
C#|--0--0--------------0--0--0--0--0--0--0--0--0--0-|
  |  .  .              .  .  .  .  .
  |GTR III
d#|-12----12----12----12----12----12----12----12----|
A#|----13----13----13----13----13----13----13----13-|
F#|-------------------------------------------------|
C#|-------------------------------------------------|
G#|-------------------------------------------------|
C#|-------------------------------------------------|

Fill 1

   GTR I,II
d#|-------------------------------------------------|
A#|-------------------------------------------------|
F#|-------------------------------------------------|
C#|--8-----7-----------3-----------5----------------|
G#|--8-----7-----------3-----------5----------------|
C#|--8-----7-----------3-----------5----------------|

Chorus

   GTR I
d#|-------------------------------------------------|
A#|-------------------------------------------------|
F#|--7-----7-----7-----7--7-10----10----10----10-10-|
C#|--7-----7-----7-----7--7-10----10----10----10-10-|
G#|--5-----5-----5-----5--5--8-----8-----8-----8--8-|
C#|-------------------------------------------------|
  |
  |GTR II
d#|-------------------------------------------------|
A#|-------------------------------------------------|
F#|-------------------------------------------------|
C#|--0-----0-----0-----0--0--3-----3-----3-----3--3-|
G#|--0-----0-----0-----0--0--3-----3-----3-----3--3-|
C#|--0-----0-----0-----0--0--3-----3-----3-----3--3-|

   GTR I,II
d#|-------------------------------------------------|
A#|-------------------------------------------------|
F#|-------------------------------------------------|
C#|-10----10----10----10-10--5-----5-----5-----5--5-|
G#|--8-----8-----8-----8--8--5-----5-----5-----5--5-|
C#|--8-----8-----8-----8--8--5-----5-----5-----5--5-|

   GTR I
d#|-------------------------------------------------|
A#|-------------------------------------------------|
F#|--7-----7-----7-----7--7-10----10----10----10-10-|
C#|--7-----7-----7-----7--7-10----10----10----10-10-|
G#|--5-----5-----5-----5--5--8-----8-----8-----8--8-|
C#|-------------------------------------------------|
  |
  |GTR II
d#|-------------------------------------------------|
A#|-------------------------------------------------|
F#|-------------------------------------------------|
C#|--0-----0-----0-----0--0--3-----3-----3-----3--3-|
G#|--0-----0-----0-----0--0--3-----3-----3-----3--3-|
C#|--0-----0-----0-----0--0--3-----3-----3-----3--3-|

   GTR I,II
d#|-------------------------------------------------|
A#|-------------------------------------------------|
F#|-------------------------------------------------|
C#|-10----10----10----10-10--5-----5-----5-----5--5-|
G#|--8-----8-----8-----8--8--5-----5-----5-----5--5-|
C#|--8-----8-----8-----8--8--5-----5-----5-----5--5-|

Fill 1
Verse
Main Riff

Verse 2

   GTR II
d#|-------------------------------------------------|
A#|-------------------------------------------------|
F#|-------------------------------------------------|
C#|-------------------------------------------------|
G#|--0--3--3--0--3--3--0--3--3--0--3--3--0--3--5--5-|
C#|--0--3--3--0--3--3--0--3--3--0--3--3--0--3--5--5-|
     .  .  .  .  .  .  .  .  .  .  .  .  .  .  .  .

   GTR II
d#|-------------------------------------------------|
A#|-------------------------------------------------|
F#|-------------------------------------------------|
C#|-------------------------12----12-12-----9-10--9-|
G#|-10-12-12-10-12-12-10-12-12----12-12-----9-10--9-|
C#|-10-12-12-10-12-12-10-12-12----12-12-----9-10--9-|
     .  .  .  .  .  .  .  .            

Pre Chorus
Fill 1
Chorus

Chorus 2

   GTR I
d#|-------------------------------------------------|
A#|-------------------------------------------------|
F#|--7-----7-----7-----7--7-10----10----10----10-10-|
C#|--7-----7-----7-----7--7-10----10----10----10-10-|
G#|--5-----5-----5-----5--5--8-----8-----8-----8--8-|
C#|-------------------------------------------------|
  |
  |GTR II
d#|-------------------------------------------------|
A#|-------------------------------------------------|
F#|-------------------------------------------------|
C#|--0-----0-----0-----0--0--3-----3-----3-----3--3-|
G#|--0-----0-----0-----0--0--3-----3-----3-----3--3-|
C#|--0-----0-----0-----0--0--3-----3-----3-----3--3-|
  |
  |GTR III
d#|-12----12----12----12----12----12----12----12----|
A#|----13----13----13----13----13----13----13----13-|
F#|-------------------------------------------------|
C#|-------------------------------------------------|
G#|-------------------------------------------------|
C#|-------------------------------------------------|

   GTR I,II
d#|-------------------------------------------------|
A#|-------------------------------------------------|
F#|-------------------------------------------------|
C#|-10----10----10----10-10--5-----5-----5-----5--5-|
G#|--8-----8-----8-----8--8--5-----5-----5-----5--5-|
C#|--8-----8-----8-----8--8--5-----5-----5-----5--5-|
  |
  |GTR III
d#|-12----12----12----12----12----12----12----12----|
A#|----13----13----13----13----13----13----13----13-|
F#|-------------------------------------------------|
C#|-------------------------------------------------|
G#|-------------------------------------------------|
C#|-------------------------------------------------|

   GTR I
d#|-------------------------------------------------|
A#|-------------------------------------------------|
F#|--7-----7-----7-----7--7-10----10----10----10-10-|
C#|--7-----7-----7-----7--7-10----10----10----10-10-|
G#|--5-----5-----5-----5--5--8-----8-----8-----8--8-|
C#|-------------------------------------------------|
  |
  |GTR II
d#|-------------------------------------------------|
A#|-------------------------------------------------|
F#|-------------------------------------------------|
C#|--0-----0-----0-----0--0--3-----3-----3-----3--3-|
G#|--0-----0-----0-----0--0--3-----3-----3-----3--3-|
C#|--0-----0-----0-----0--0--3-----3-----3-----3--3-|
  |
  |GTR III
d#|-12----12----12----12----12----12----12----12----|
A#|----13----13----13----13----13----13----13----13-|
F#|-------------------------------------------------|
C#|-------------------------------------------------|
G#|-------------------------------------------------|
C#|-------------------------------------------------|

   GTR I,II
d#|-------------------------------------------------|
A#|-------------------------------------------------|
F#|-------------------------------------------------|
C#|-10----10----10----10-10--5-----5-----5-----5--5-|
G#|--8-----8-----8-----8--8--5-----5-----5-----5--5-|
C#|--8-----8-----8-----8--8--5-----5-----5-----5--5-|
  |
  |GTR III
d#|-12----12----12----12----12----12----12----12----|
A#|----13----13----13----13----13----13----13----13-|
F#|-------------------------------------------------|
C#|-------------------------------------------------|
G#|-------------------------------------------------|
C#|-------------------------------------------------|

Fill 1

Fill 2

   GTR I
d#|-------------------------------------------------|
A#|-------------------------------------------------|
F#|-------------------------------------------------|
C#|--3/-5--5/-7--7/10--5----------------------------|
G#|-------------------------------------------------|
C#|-------------------------------------------------|
  |
  |GTR II
d#|-------------------------------------------------|
A#|-------------------------------------------------|
F#|-------------------------------------------------|
C#|-------------------------------------------------|
G#|-------------------------------------------------|
C#|--3/-5--5/-7--7/10--5----------------------------|

Interlude

   GTR I,II
d#|-------------------------------------------------|
A#|-------------------------------------------------|
F#|-------------------------------------------------|
C#|--3--3--3--3--3--3--3--3--3--3--3--3--3--3--3--3-|
G#|--3--3--3--3--3--3--3--3--3--3--3--3--3--3--3--3-|
C#|--3--3--3--3--3--3--3--3--3--3--3--3--3--3--3--3-|
  |
  |GTR III
d#|-12----12----12----12----12----12----12----12----|
A#|----13----13----13----13----13----13----13----13-|
F#|-------------------------------------------------|
C#|-------------------------------------------------|
G#|-------------------------------------------------|
C#|-------------------------------------------------|

   GTR I,II
d#|-------------------------------------------------|
A#|--3--3--3--3--3--3--3--3--3--3--3--3--3--3--3--3-|
F#|--2--2--2--2--2--2--2--2--2--2--2--2--2--2--2--2-|
C#|--0--0--0--0--0--0--0--0--0--0--0--0--0--0--0--0-|
G#|--0--0--0--0--0--0--0--0--0--0--0--0--0--0--0--0-|
C#|--0--0--0--0--0--0--0--0--0--0--0--0--0--0--0--0-|
  |
  |GTR III
d#|-12----12----12----12----12----12----12----12----|
A#|----13----13----13----13----13----13----13----13-|
F#|-------------------------------------------------|
C#|-------------------------------------------------|
G#|-------------------------------------------------|
C#|-------------------------------------------------|

   GTR I,II
d#|-------------------------------------------------|
A#|-------------------------------------------------|
F#|-------------------------------------------------|
C#|--3--3--3--3--3--3--3--3--3--3--3--3--3--3--3--3-|
G#|--3--3--3--3--3--3--3--3--3--3--3--3--3--3--3--3-|
C#|--3--3--3--3--3--3--3--3--3--3--3--3--3--3--3--3-|
  |
  |GTR III
d#|-12----12----12----12----12----12----12----12----|
A#|----13----13----13----13----13----13----13----13-|
F#|-------------------------------------------------|
C#|-------------------------------------------------|
G#|-------------------------------------------------|
C#|-------------------------------------------------|

   GTR I,II
d#|-------------------------------------------------|
A#|--3--3--3--3--3--3--3--3--3--3--3--3--3--3--3--3-|
F#|--2--2--2--2--2--2--2--2--2--2--2--2--2--2--2--2-|
C#|--0--0--0--0--0--0--0--0--0--0--0--0--0--0--0--0-|
G#|--0--0--0--0--0--0--0--0--0--0--0--0--0--0--0--0-|
C#|--0--0--0--0--0--0--0--0--0--0--0--0--0--0--0--0-|
  |
  |GTR III
d#|-12----12----12----12----12----12----12----12----|
A#|----13----13----13----13----13----13----13----13-|
F#|-------------------------------------------------|
C#|-------------------------------------------------|
G#|-------------------------------------------------|
C#|-------------------------------------------------|

   GTR I,II
d#|-------------------------------------------------|
A#|-------------------------------------------------|
F#|-------------------------------------------------|
C#|--3--3--3--3--3--3--3--3--3--3--3--3--3--3--3--3-|
G#|--3--3--3--3--3--3--3--3--3--3--3--3--3--3--3--3-|
C#|--3--3--3--3--3--3--3--3--3--3--3--3--3--3--3--3-|
  |
  |GTR III
d#|-12----12----12----12----12----12----12----12----|
A#|----13----13----13----13----13----13----13----13-|
F#|-------------------------------------------------|
C#|-------------------------------------------------|
G#|-------------------------------------------------|
C#|-------------------------------------------------|

   GTR I,II
d#|-------------------------------------------------|
A#|--3--3--3--3--3--3--3--3--3--3--3--3--3--3--3--3-|
F#|--2--2--2--2--2--2--2--2--2--2--2--2--2--2--2--2-|
C#|--0--0--0--0--0--0--0--0--0--0--0--0--0--0--0--0-|
G#|--0--0--0--0--0--0--0--0--0--0--0--0--0--0--0--0-|
C#|--0--0--0--0--0--0--0--0--0--0--0--0--0--0--0--0-|
  |
  |GTR III
d#|-12----12----12----12----12----12----12----12----|
A#|----13----13----13----13----13----13----13----13-|
F#|-------------------------------------------------|
C#|-------------------------------------------------|
G#|-------------------------------------------------|
C#|-------------------------------------------------|

   GTR I,II
d#|-------------------------------------------------|
A#|-------------------------------------------------|
F#|-------------------------------------------------|
C#|--3--3--3--3--3--3--3--3--3--3--3--3--3--3--3--3-|
G#|--3--3--3--3--3--3--3--3--3--3--3--3--3--3--3--3-|
C#|--3--3--3--3--3--3--3--3--3--3--3--3--3--3--3--3-|
  |
  |GTR III
d#|-12----12----12----12----12----12----12----12----|
A#|----13----13----13----13----13----13----13----13-|
F#|-------------------------------------------------|
C#|-------------------------------------------------|
G#|-------------------------------------------------|
C#|-------------------------------------------------|

   GTR I,II
d#|-------------------------------------------------|
A#|-------------------------------------------------|
F#|-------------------------------------------------|
C#|--------------------------0--0--0--0--0--0--0--0-|
G#|--0--0--0--0--0--0--0--0--0--0--0--0--0--0--0--0-|
C#|--0--0--0--0--0--0--0--0--0--0--0--0--0--0--0--0-|
     .  .  .  .  .  .  .  .

Fill 3

   GTR I,II
d#|-------------------------------------------------|
A#|--------5-----5--5--------5-----5--5-------------|
F#|--------5-----5--5--------5-----5--5-------------|
C#|-----------------------------------------5-------|
G#|--3--3--------------3--3--------------3--5-------|
C#|--3--3--------------3--3--------------3--5-------|
     .  .              .  .              .
   
   GTR I,II
d#|--------5-----5--5--------5-----5--5-------------|
A#|--------5-----5--5--------5-----5--5-------------|
F#|-----------------------------------------4--4--4-|
C#|-----------------------------------------5--5--5-|
G#|--0--0--------------0--0-------------------------|
C#|--0--0--------------0--0-------------------------|
     .  .              .  .

   GTR I,II
d#|-------------------------------------------------|
A#|--------5-----5--5--------5-----5--5-------------|
F#|--------5-----5--5--------5-----5--5-------------|
C#|-----------------------------------------5-------|
G#|--3--3--------------3--3--------------3--5-------|
C#|--3--3--------------3--3--------------3--5-------|
     .  .              .  .              .
   
   GTR I
d#|-------------------------------------------------|
A#|-------------------------------------------------|
F#|--------------------------7--5--5--7-10-10-10-10-|
C#|--------------------------x--x--x--x--x--x--x--x-|
G#|--------------------------5--3--3--5--8--8--8--8-|
C#|-------------------------------------------------|
  |
  |GTR II
d#|--------5-----5--5--------5-----5--5-------------|
A#|--------5-----5--5--------5-----5--5-------------|
F#|-----------------------------------------4--4--4-|
C#|-----------------------------------------5--5--5-|
G#|--0--0--------------0--0-------------------------|
C#|--0--0--------------0--0-------------------------|
     .  .              .  .

   GTR I
d#|-------------------------|
A#|-------------------------|
F#|--7--5--5--7-12b---------|
C#|--x--x--x--x--x----------|
G#|--5--3--3--5-10b---------|
C#|-------------------------|

Chorus
Chorus 2

Outro

   GTR I
d#|-------------------------------------------------|
A#|-------------------------------------------------|
F#|--7-----7-----7-----7--7-10----10----10----10-10-|
C#|--7-----7-----7-----7--7-10----10----10----10-10-|
G#|--5-----5-----5-----5--5--8-----8-----8-----8--8-|
C#|-------------------------------------------------|
  |
  |GTR II
d#|-------------------------------------------------|
A#|-------------------------------------------------|
F#|-------------------------------------------------|
C#|--0-----0-----0-----0--0--3-----3-----3-----3--3-|
G#|--0-----0-----0-----0--0--3-----3-----3-----3--3-|
C#|--0-----0-----0-----0--0--3-----3-----3-----3--3-|
  |
  |GTR III
d#|-------------------------------------------------|
A#|-------------------------------------------------|
F#|/14---------------\12---------/17----------------|
C#|-------------------------------------------------|
G#|-------------------------------------------------|
C#|-------------------------------------------------|

   GTR I,II
d#|-------------------------------------------------|
A#|-------------------------------------------------|
F#|-------------------------------------------------|
C#|-10----10----10----10-10--5-----5-----5-----5--5-|
G#|--8-----8-----8-----8--8--5-----5-----5-----5--5-|
C#|--8-----8-----8-----8--8--5-----5-----5-----5--5-|
  |
  |GTR III
d#|-------------------------------------------------|
A#|-------------------------------------------------|
F#|/14---------------\12---------/17----------------|
C#|-------------------------------------------------|
G#|-------------------------------------------------|
C#|-------------------------------------------------|

   GTR I
d#|-------------------------------------------------|
A#|-------------------------------------------------|
F#|--7-----7-----7-----7--7-10----10----10----10-10-|
C#|--7-----7-----7-----7--7-10----10----10----10-10-|
G#|--5-----5-----5-----5--5--8-----8-----8-----8--8-|
C#|-------------------------------------------------|
  |
  |GTR II
d#|-------------------------------------------------|
A#|-------------------------------------------------|
F#|-------------------------------------------------|
C#|--0-----0-----0-----0--0--3-----3-----3-----3--3-|
G#|--0-----0-----0-----0--0--3-----3-----3-----3--3-|
C#|--0-----0-----0-----0--0--3-----3-----3-----3--3-|
  |
  |GTR III
d#|-------------------------------------------------|
A#|-------------------------------------------------|
F#|/14---------------\12---------/17----------------|
C#|-------------------------------------------------|
G#|-------------------------------------------------|
C#|-------------------------------------------------|

   GTR I,II
d#|-------------------------------------------------|
A#|-------------------------------------------------|
F#|-------------------------------------------------|
C#|-10----10----10----10-10--5-----5-----5-----5--5-|
G#|--8-----8-----8-----8--8--5-----5-----5-----5--5-|
C#|--8-----8-----8-----8--8--5-----5-----5-----5--5-|
  |
  |GTR III
d#|-------------------------------------------------|
A#|-------------------------------------------------|
F#|/14---------------\12---------/17----------------|
C#|-------------------------------------------------|
G#|-------------------------------------------------|
C#|-------------------------------------------------|

Fill 4

   GTR I,II
d#|-------------------------------------------------|
A#|-------------------------------------------------|
F#|-------------------------------------------------|
C#|--8-----7-----------3-----------5----------------|
G#|--8-----7-----------3-----------5----------------|
C#|--8-----7-----------3-----------5----------------|
  |
  |GTR III
d#|-------------------------------------------------|
A#|-------------------------------------------------|
F#|/19----------------------------------------------|
C#|-------------------------------------------------|
G#|-------------------------------------------------|
C#|-------------------------------------------------|


| b  bend
| r  release bend
|trp triplet
|PH. pinch harmonic
|fbk feedback
| .  palm-mute
| /  slide up
| \  slide down
| h  hammer-on
| p  pull-off
| ~  vibrato
|(7) harmonic
| x  Mute note
===============================================================================

Tap to rate this tab
 
# A B C D E F G H I J K L M N O P Q R S T U V W X Y Z