Theory Of A Deadman - A Leg To Stand On tab

Leg To Stand On
Theory of A Deadman
Theory of A Deadman (2002)

Words & Music by Tyler Connolly

GTR I - Drop B Tuning "Tyler Connolly" (c#,G#,E,B,F#,B)
GTR II - Drop B Tuning "Dave Brenner" (c#,G#,E,B,F#,B)

Intro

   GTR I
c#|-------------------------------------------------|
G#|-----------x-----x--x--------x-----x--x----------|
 E|-10\-------2-----2--2--------2-----2--2----------|
 B|-10\-------0-----0--0--------0-----0--0-----3----|
F#|--8\-------0-----0--0--x--x--0-----0--0-----3----|
 B|-----------------------x--x-----------------3----|
  |
  |GTR II
c#|-------------------------------------------------|
G#|-----------x-----x--x--------x-----x--x----------|
 E|-----------2-----2--2--------2-----2--2----------|
 B|--3\-------0-----0--0--------0-----0--0-----3----|
F#|--3\-------0-----0--0--x--x--0-----0--0-----3----|
 B|--3\-------------------x--x-----------------3----|

   GTR I
c#|-------------------------------------------------|
G#|-----------x-----x--x--------x-----x--x----------|
 E|-----------2-----2--2--------2-----2--2----------|
 B|--3-----3--0-----0--0--------0-----0--0-----3----|
F#|--3-----3--0-----0--0--x--x--0-----0--0-----3----|
 B|--3-----3--------------x--x-----------------3----|

   GTR I
c#|-------------------------------------------------|
G#|-----------x-----x--x--------x-----x--x----------|
 E|-10\-------2-----2--2--------2-----2--2----------|
 B|-10\-------0-----0--0--------0-----0--0-----3----|
F#|--8\-------0-----0--0--x--x--0-----0--0-----3----|
 B|-----------------------x--x-----------------3----|
  |
  |GTR II
c#|-------------------------------------------------|
G#|-----------x-----x--x--------x-----x--x----------|
 E|-----------2-----2--2--------2-----2--2----------|
 B|--3\-------0-----0--0--------0-----0--0-----3----|
F#|--3\-------0-----0--0--x--x--0-----0--0-----3----|
 B|--3\-------------------x--x-----------------3----|

   GTR I
c#|-------------------------------------------------|
G#|-----------x-----x--x--------x-----x-------------|
 E|-----------2-----2--2--------2-----2-------------|
 B|--3-----3--0-----0--0--------0-----0-------------|
F#|--3-----3--0-----0--0--x--x--0-----0-------------|
 B|--3-----3--------------x--x----------------------|

Verse

   GTR I
c#|-------------------------------------------------|
G#|-------------------------------------------------|
 E|-10\---------------------------------------------|
 B|-10\---------------------------------------------|
F#|--8\---------------------------------------------|
 B|-------------------------------------------------|
  |
  |GTR II
c#|-------------------------------------------------|
G#|-------------------------------------------------|
 E|-------------------------------------------------|
 B|--3\---------------------------------------------|
F#|--3\-------0-----0--0--x--x--0-----0--0-----3----|
 B|--3\-------0-----0--0--x--x--0-----0--0-----3----|
              .     .  .        .     .  .     .

   GTR II
c#|-------------------------------------------------|
G#|-------------------------------------------------|
 E|-------------------------------------------------|
 B|--3\---------------------------------------------|
F#|--3\-------0-----0--0--x--x--0-----3--0--3--5----|
 B|--3\-------0-----0--0--x--x--0-----3--0--3--5----|
              .     .  .        .     .  .  .  .

   GTR I,II
c#|-------------------------------------------------|
G#|-------------------------------------------------|
 E|--5-----5--5--5--5--5--5-------------------------|
 B|--5-----5--5--5--5--5--5--5-----5--3--0--3--0--5-|
F#|--3-----3--3--3--3--3--3--5-----5--3--0--3--0--5-|
 B|--------------------------5-----5--3--0--3--0--5-|

   GTR I,II
c#|-------------------------------------------------|
G#|-------------------------------------------------|
 E|-------------------------------------------------|
 B|--3\-------0-----0--0--------0-----0--0-----3----|
F#|--3\-------0-----0--0--x--x--0-----0--0-----3----|
 B|--3\-------0-----0--0--x--x--0-----0--0-----3----|

   GTR I
c#|-------------------------------------------------|
G#|-------------------------------------------------|
 E|-10\---------------------------------------------|
 B|-10\---------------------------------------------|
F#|--8\---------------------------------------------|
 B|-------------------------------------------------|
  |
  |GTR II
c#|-------------------------------------------------|
G#|-------------------------------------------------|
 E|-------------------------------------------------|
 B|--3\---------------------------------------------|
F#|--3\-------0-----0--0--x--x--0-----0--0-----3----|
 B|--3\-------0-----0--0--x--x--0-----0--0-----3----|
              .     .  .        .     .  .     .

   GTR II
c#|-------------------------------------------------|
G#|-------------------------------------------------|
 E|-------------------------------------------------|
 B|--3\---------------------------------------------|
F#|--3\-------0-----0--0--x--x--0-----3--0--3--5----|
 B|--3\-------0-----0--0--x--x--0-----3--0--3--5----|
              .     .  .        .     .  .  .  .

   GTR I,II
c#|-------------------------------------------------|
G#|-------------------------------------------------|
 E|--5-----5--5--5--5--5--5-------------------------|
 B|--5-----5--5--5--5--5--5--5-----5--3--0--3--0--5-|
F#|--3-----3--3--3--3--3--3--5-----5--3--0--3--0--5-|
 B|--------------------------5-----5--3--0--3--0--5-|

   GTR I,II
c#|-------------------------------------------------|
G#|-------------------------------------------------|
 E|-------------------------------------------------|
 B|--3\-------0-----0--0--------0-----0--0----------|
F#|--3\-------0-----0--0--x--x--0-----0--0--5--3----|
 B|--3\-------0-----0--0--x--x--0-----0--0----------|

Pre Chorus

   GTR I,II
c#|-------------------------------------------------|
G#|-------------------------------------------------|
 E|-------------------------------------------------|
 B|--8-----8--8--8--8--8--8--8--8--8--8--8--8--8--8-|
F#|--8-----8--8--8--8--8--8--8--8--8--8--8--8--8--8-|
 B|--8-----8--8--8--8--8--8--8--8--8--8--8--8--8--8-|

   GTR I,II
c#|-------------------------------------------------|
G#|-------------------------------------------------|
 E|-------------------------------------------------|
 B|--5-----5--5--5--5--5--5--5--5--5--5--5----------|
F#|--5-----5--5--5--5--5--5--5--5--5--5--5--5--3----|
 B|--5-----5--5--5--5--5--5--5--5--5--5--5----------|

   GTR I,II
c#|-------------------------------------------------|
G#|-------------------------------------------------|
 E|-------------------------------------------------|
 B|--8-----8--8--8--8--8--8--8--8--8--8--8--8--8--8-|
F#|--8-----8--8--8--8--8--8--8--8--8--8--8--8--8--8-|
 B|--8-----8--8--8--8--8--8--8--8--8--8--8--8--8--8-|

   GTR I,II
c#|-------------------------------------------------|
G#|-------------------------------------------------|
 E|-------------------------------------------------|
 B|--5-----5--5--5--5--5--5--5--5--5--5--5--0--0--0-|
F#|--5-----5--5--5--5--5--5--5--5--5--5--5--0--0--0-|
 B|--5-----5--5--5--5--5--5--5--5--5--5--5--0--0--0-|

   GTR I
c#|-------------------------------------------------|
G#|-------------------------------------------------|
 E|-------------------------------------------------|
 B|--8-----8--8--8--8--8--8--8--8--8--8--8--8--8--8-|
F#|--8-----8--8--8--8--8--8--8--8--8--8--8--8--8--8-|
 B|--8-----8--8--8--8--8--8--8--8--8--8--8--8--8--8-|
  |
  |GTR II
c#|-------------------------------------------------|
G#|--------------3-----------------------3----------|
 E|-------------------------------------------------|
 B|-----------0-----------------------0-------------|
F#|-------------------------------------------------|
 B|-------------------------------------------------|

   GTR I,II
c#|-------------------------------------------------|
G#|-------------------------------------------------|
 E|-------------------------------------------------|
 B|--5-----5--5--5--5--5--5--5--5--5--5--5----------|
F#|--5-----5--5--5--5--5--5--5--5--5--5--5--3--5----|
 B|--5-----5--5--5--5--5--5--5--5--5--5--5----------|
  |
  |GTR II
c#|-------------------------------------------------|
G#|--------------3-----------------------3----------|
 E|-------------------------------------------------|
 B|-----------0-----------------------0-------------|
F#|-------------------------------------------------|
 B|-------------------------------------------------|

   GTR I
c#|-------------------------------------------------|
G#|-------------------------------------------------|
 E|-------------------------------------------------|
 B|--8-----8--8--8--8--8--8--8--8--8--8--8--8--8--8-|
F#|--8-----8--8--8--8--8--8--8--8--8--8--8--8--8--8-|
 B|--8-----8--8--8--8--8--8--8--8--8--8--8--8--8--8-|
  |
  |GTR II
c#|-------------------------------------------------|
G#|--------------3-----------------------3----------|
 E|-------------------------------------------------|
 B|-----------0-----------------------0-------------|
F#|-------------------------------------------------|
 B|-------------------------------------------------|

   GTR I,II
c#|-------------------------------------------------|
G#|-------------------------------------------------|
 E|-------------------------------------------------|
 B|--5-----5--5--5--5--5--5--5\---------------------|
F#|--5-----5--5--5--5--5--5--5\---------------------|
 B|--5-----5--5--5--5--5--5--5\---------------------|
  |
  |GTR II
c#|-------------------------------------------------|
G#|--------------3----------------------------------|
 E|-------------------------------------------------|
 B|-----------0-------------------------------------|
F#|-------------------------------------------------|
 B|-------------------------------------------------|

Verse 2

   GTR I
c#|-------------------------------------------------|
G#|-------------------------------------------------|
 E|-10\---------------------------------------------|
 B|-10\---------------------------------------------|
F#|--8\---------------------------------------------|
 B|-------------------------------------------------|
  |
  |GTR II
c#|-------------------------------------------------|
G#|-------------------------------------------------|
 E|-------------------------------------------------|
 B|--3\---------------------------------------------|
F#|--3\-------0-----0--0--x--x--0-----0--0-----3----|
 B|--3\-------0-----0--0--x--x--0-----0--0-----3----|
              .     .  .        .     .  .     .

   GTR II
c#|-------------------------------------------------|
G#|-------------------------------------------------|
 E|-------------------------------------------------|
 B|--3\---------------------------------------------|
F#|--3\-------0-----0--0--x--x--0-----3--0--3--5----|
 B|--3\-------0-----0--0--x--x--0-----3--0--3--5----|
              .     .  .        .     .  .  .  .

   GTR I,II
c#|-------------------------------------------------|
G#|-------------------------------------------------|
 E|--5-----5--5--5--5--5--5-------------------------|
 B|--5-----5--5--5--5--5--5--5-----5--3--0--3--0--5-|
F#|--3-----3--3--3--3--3--3--5-----5--3--0--3--0--5-|
 B|--------------------------5-----5--3--0--3--0--5-|

   GTR I,II
c#|-------------------------------------------------|
G#|-------------------------------------------------|
 E|-------------------------------------------------|
 B|--3\-------0-----0--0----------------------------|
F#|--3\-------0-----0--0--x--x--0--0--0--0--0--0--0-|
 B|--3\-------0-----0--0--x--x--0--0--0--0--0--0--0-|
                                .  .  .  .  .  .  .

   GTR I
c#|-------------------------------------------------|
G#|-------------------------------------------------|
 E|-10\---------------------------------------------|
 B|-10\---------------------------------------------|
F#|--8\---------------------------------------------|
 B|-------------------------------------------------|
  |
  |GTR II
c#|-------------------------------------------------|
G#|-------------------------------------------------|
 E|-------------------------------------------------|
 B|--3\---------------------------------------------|
F#|--3\-------0-----0--0--x--x--0-----0--0-----3----|
 B|--3\-------0-----0--0--x--x--0-----0--0-----3----|
              .     .  .        .     .  .     .

   GTR II
c#|-------------------------------------------------|
G#|-------------------------------------------------|
 E|-------------------------------------------------|
 B|--3\---------------------------------------------|
F#|--3\-------0-----0--0--x--x--0-----3--0--3--5----|
 B|--3\-------0-----0--0--x--x--0-----3--0--3--5----|
              .     .  .        .     .  .  .  .

   GTR I,II
c#|-------------------------------------------------|
G#|-------------------------------------------------|
 E|--5-----5--5--5--5--5--5-------------------------|
 B|--5-----5--5--5--5--5--5--5-----5--3--0--3--0--5-|
F#|--3-----3--3--3--3--3--3--5-----5--3--0--3--0--5-|
 B|--------------------------5-----5--3--0--3--0--5-|

   GTR I,II
c#|-------------------------------------------------|
G#|-------------------------------------------------|
 E|-------------------------------------------------|
 B|--3\-------0-----0--0--------0-----0--0----------|
F#|--3\-------0-----0--0--x--x--0-----0--0--5--3----|
 B|--3\-------0-----0--0--x--x--0-----0--0----------|

Pre Chorus 2

   GTR I,II
c#|-------------------------------------------------|
G#|-------------------------------------------------|
 E|-------------------------------------------------|
 B|--8-----8--8--8--8--8--8--8--8--8--8--8--8--8--8-|
F#|--8-----8--8--8--8--8--8--8--8--8--8--8--8--8--8-|
 B|--8-----8--8--8--8--8--8--8--8--8--8--8--8--8--8-|

   GTR I,II
c#|-------------------------------------------------|
G#|-------------------------------------------------|
 E|-------------------------------------------------|
 B|--5-----5--5--5--5--5--5--5--5--5--5--5----------|
F#|--5-----5--5--5--5--5--5--5--5--5--5--5--5--3----|
 B|--5-----5--5--5--5--5--5--5--5--5--5--5----------|

   GTR I,II
c#|-------------------------------------------------|
G#|-------------------------------------------------|
 E|-------------------------------------------------|
 B|--8-----8--8--8--8--8--8--8--8--8--8--8--8--8--8-|
F#|--8-----8--8--8--8--8--8--8--8--8--8--8--8--8--8-|
 B|--8-----8--8--8--8--8--8--8--8--8--8--8--8--8--8-|

   GTR I,II
c#|-------------------------------------------------|
G#|-------------------------------------------------|
 E|-------------------------------------------------|
 B|--5-----5--5--5--5--5--5--5--5--5--5--5--0--0--0-|
F#|--5-----5--5--5--5--5--5--5--5--5--5--5--0--0--0-|
 B|--5-----5--5--5--5--5--5--5--5--5--5--5--0--0--0-|

   GTR I
c#|-------------------------------------------------|
G#|-------------------------------------------------|
 E|-------------------------------------------------|
 B|--8-----8--8--8--8--8--8--8--8--8--8--8--8--8--8-|
F#|--8-----8--8--8--8--8--8--8--8--8--8--8--8--8--8-|
 B|--8-----8--8--8--8--8--8--8--8--8--8--8--8--8--8-|
  |
  |GTR II
c#|-------------------------------------------------|
G#|--------------3-----------------------3----------|
 E|-------------------------------------------------|
 B|-----------0-----------------------0-------------|
F#|-------------------------------------------------|
 B|-------------------------------------------------|

   GTR I,II
c#|-------------------------------------------------|
G#|-------------------------------------------------|
 E|-------------------------------------------------|
 B|--5-----5--5--5--5--5--5--5--5--5--5--5----------|
F#|--5-----5--5--5--5--5--5--5--5--5--5--5--3--5----|
 B|--5-----5--5--5--5--5--5--5--5--5--5--5----------|
  |
  |GTR II
c#|-------------------------------------------------|
G#|--------------3-----------------------3----------|
 E|-------------------------------------------------|
 B|-----------0-----------------------0-------------|
F#|-------------------------------------------------|
 B|-------------------------------------------------|

   GTR I
c#|-------------------------------------------------|
G#|-------------------------------------------------|
 E|-------------------------------------------------|
 B|--8-----8--8--8--8--8--8--8--8--8--8--8--8--8--8-|
F#|--8-----8--8--8--8--8--8--8--8--8--8--8--8--8--8-|
 B|--8-----8--8--8--8--8--8--8--8--8--8--8--8--8--8-|
  |
  |GTR II
c#|-------------------------------------------------|
G#|--------------3-----------------------3----------|
 E|-------------------------------------------------|
 B|-----------0-----------------------0-------------|
F#|-------------------------------------------------|
 B|-------------------------------------------------|

   GTR I,II
c#|-------------------------------------------------|
G#|-------------------------------------------------|
 E|-------------------------------------------------|
 B|--5--5--5--5--5--5--5--5--5--5--5--5--5--5--5--5-|
F#|--5--5--5--5--5--5--5--5--5--5--5--5--5--5--5--5-|
 B|--5--5--5--5--5--5--5--5--5--5--5--5--5--5--5--5-|

Chorus

   GTR I,II
c#|-------------------------------------------------|
G#|-------------------------------------------------|
 E|--------------------------5-----5--5--5--5--5--5-|
 B|--0-----0--0--0--0--0--0--5-----5--5--5--5--5--5-|
F#|--0-----0--0--0--0--0--0--3-----3--3--3--3--3--3-|
 B|--0-----0--0--0--0--0--0-------------------------|

   GTR I,II
c#|-------------------------------------------------|
G#|-------------------------------------------------|
 E|-------------------------------------------------|
 B|--5-----5--5--5--5--5--5--3-----3--3--3--3--2--2-|
F#|--5-----5--5--5--5--5--5--3-----3--3--3--3--2--2-|
 B|--5-----5--5--5--5--5--5--3-----3--3--3--3--2--2-|

   GTR I,II
c#|-------------------------------------------------|
G#|-------------------------------------------------|
 E|--------------------------5-----5--5--5--5--5--5-|
 B|--0-----0--0--0--0--0--0--5-----5--5--5--5--5--5-|
F#|--0-----0--0--0--0--0--0--3-----3--3--3--3--3--3-|
 B|--0-----0--0--0--0--0--0-------------------------|

   GTR I,II
c#|-------------------------------------------------|
G#|-------------------------------------------------|
 E|-------------------------------------------------|
 B|--5-----5--5--5--5--5--5--3-----3--3--3--3--2--2-|
F#|--5-----5--5--5--5--5--5--3-----3--3--3--3--2--2-|
 B|--5-----5--5--5--5--5--5--3-----3--3--3--3--2--2-|

Post Chorus

   GTR I,II
c#|-------------------------------------------------|
G#|-------------------------------------------------|
 E|--------------------------5--------5--------5----|
 B|--0--------0--------0-----5--5--5--5--5--5--5--5-|
F#|--0--0--0--0--0--0--0--0--3--3--3--3--3--3--3--3-|
 B|--0--0--0--0--0--0--0--0-------------------------|
        .  .     .  .     .     .  .     .  .     .

   GTR I,II                              PH.
c#|-------------------------------------------------|
G#|-------------------------------------------------|
 E|--4--------4--------4----------------------------|
 B|--4--4--4--4--4--4--4--4--3-----3----------------|
F#|--2--2--2--2--2--2--2--2--3--3--3--3-------------|
 B|--------------------------3--3--3--3--3b---------|
        .  .     .  .     .     .     .            

   GTR I,II
c#|-------------------------------------------------|
G#|-------------------------------------------------|
 E|--------------------------5--------5--------5----|
 B|--0--------0--------0-----5--5--5--5--5--5--5--5-|
F#|--0--0--0--0--0--0--0--0--3--3--3--3--3--3--3--3-|
 B|--0--0--0--0--0--0--0--0-------------------------|
        .  .     .  .     .     .  .     .  .     .

   GTR I,II                              
c#|-------------------------------------------------|
G#|-------------------------------------------------|
 E|--4----------------------------------------------|
 B|--4-----------------------------3--3--3--3--2--2-|
F#|--2-----------------------------3--3--3--3--2--2-|
 B|--------------------------------3--3--3--3--2--2-|

Guitar Solo

   GTR I
c#|-------------------------------------------------|
G#|-------------------------------------------------|
 E|-------------------------------------------------|
 B|--0-----------0--2-----3--------------2--3-----5-|
F#|-------------------------------------------------|
 B|-------------------------------------------------|
  |
  |GTR II
c#|-------------------------------------------------|
G#|-------------------------------------------------|
 E|--------------------------5-----5--5--5--5--5--5-|
 B|--0-----0--0--0--0--0--0--5-----5--5--5--5--5--5-|
F#|--0-----0--0--0--0--0--0--3-----3--3--3--3--3--3-|
 B|--0-----0--0--0--0--0--0-------------------------|

   GTR I
c#|-------------------------------------------------|
G#|-------------------------------------------------|
 E|-------------------------------------------------|
 B|-----------------3--5--5b------------------------|
F#|-------------------------------------------------|
 B|-----------------------------0--3--5--6--5--3--0-|
  |
  |GTR II
c#|-------------------------------------------------|
G#|-------------------------------------------------|
 E|--4-----4--4--4--4--4--4-------------------------|
 B|--4-----4--4--4--4--4--4--3-----3--3--3--3--2--2-|
F#|--2-----2--2--2--2--2--2--3-----3--3--3--3--2--2-|
 B|--------------------------3-----3--3--3--3--2--2-|

   GTR I
c#|-------------------------------------------------|
G#|-------------------------------------------------|
 E|----------------------------/5--6--7----/5--6--7-|
 B|----/5--6--7----/5--6--7-------------------------|
F#|-------------------------------------------------|
 B|-------------------------------------------------|
  |
  |GTR II
c#|-------------------------------------------------|
G#|-------------------------------------------------|
 E|--------------------------5-----5--5--5--5--5--5-|
 B|--0-----0--0--0--0--0--0--5-----5--5--5--5--5--5-|
F#|--0-----0--0--0--0--0--0--3-----3--3--3--3--3--3-|
 B|--0-----0--0--0--0--0--0-------------------------|

   GTR I
c#|-------------------------------------------------|
G#|--6-----6h8p6----6h8p6----6--8----15-13-------15-|
 E|-----7--------7--------7----------------12-14----|
 B|-------------------------------------------------|
F#|-------------------------------------------------|
 B|-------------------------------------------------|
  |
  |GTR II
c#|-------------------------------------------------|
G#|-------------------------------------------------|
 E|--4-----4--4--4--4--4--4-------------------------|
 B|--4-----4--4--4--4--4--4--3-----3--3--3----------|
F#|--2-----2--2--2--2--2--2--3-----3--3--3--5--3----|
 B|--------------------------3-----3--3--3----------|

Outro

   GTR I
c#|-------------------------------------------------|
G#|-------------------------------------------------|
 E|-------------------------------------------------|
 B|--8-----8--8--8--8--8--8--8--8--8--8--8--8--8--8-|
F#|--8-----8--8--8--8--8--8--8--8--8--8--8--8--8--8-|
 B|--8-----8--8--8--8--8--8--8--8--8--8--8--8--8--8-|
  |
  |GTR II
c#|-------------------------------------------------|
G#|--------------3-----------------------3----------|
 E|-------------------------------------------------|
 B|-----------0-----------------------0-------------|
F#|-------------------------------------------------|
 B|-------------------------------------------------|

   GTR I
c#|-------------------------------------------------|
G#|-------------------------------------------------|
 E|-------------------------------------------------|
 B|--5-----5--5--5--5--5--5--5--5--5--5--5--5--5--5-|
F#|--5-----5--5--5--5--5--5--5--5--5--5--5--5--5--5-|
 B|--5-----5--5--5--5--5--5--5--5--5--5--5--5--5--5-|
  |
  |GTR II
c#|-------------------------------------------------|
G#|--------------3-----------------------3----------|
 E|-------------------------------------------------|
 B|-----------0-----------------------0-------------|
F#|-------------------------------------------------|
 B|-------------------------------------------------|

   GTR I
c#|-------------------------------------------------|
G#|-------------------------------------------------|
 E|-------------------------------------------------|
 B|--8-----8--8--8--8--8--8--8--8--8--8--8--8--8--8-|
F#|--8-----8--8--8--8--8--8--8--8--8--8--8--8--8--8-|
 B|--8-----8--8--8--8--8--8--8--8--8--8--8--8--8--8-|
  |
  |GTR II
c#|-------------------------------------------------|
G#|--------------3-----------------------3----------|
 E|-------------------------------------------------|
 B|-----------0-----------------------0-------------|
F#|-------------------------------------------------|
 B|-------------------------------------------------|

   GTR I
c#|-------------------------------------------------|
G#|-------------------------------------------------|
 E|-------------------------------------------------|
 B|--5-----5--5--5--5--5--5--5--5--5--5--5--5--5--5-|
F#|--5-----5--5--5--5--5--5--5--5--5--5--5--5--5--5-|
 B|--5-----5--5--5--5--5--5--5--5--5--5--5--5--5--5-|
  |
  |GTR II
c#|-------------------------------------------------|
G#|--------------3-----------------------3----------|
 E|-------------------------------------------------|
 B|-----------0-----------------------0-------------|
F#|-------------------------------------------------|
 B|-------------------------------------------------|

   GTR I
c#|-------------------------------------------------|
G#|-------------------------------------------------|
 E|-------------------------------------------------|
 B|--8-----8--8--8--8--8--8--8--8--8--8--8--8--8--8-|
F#|--8-----8--8--8--8--8--8--8--8--8--8--8--8--8--8-|
 B|--8-----8--8--8--8--8--8--8--8--8--8--8--8--8--8-|
  |
  |GTR II
c#|-------------------------------------------------|
G#|--------------3-----------------------3----------|
 E|-------------------------------------------------|
 B|-----------0-----------------------0-------------|
F#|-------------------------------------------------|
 B|-------------------------------------------------|

   GTR I
c#|-------------------------------------------------|
G#|-------------------------------------------------|
 E|-------------------------------------------------|
 B|--5-----5--5--5--5--5--5--5--5--5--5--5--5--5--5-|
F#|--5-----5--5--5--5--5--5--5--5--5--5--5--5--5--5-|
 B|--5-----5--5--5--5--5--5--5--5--5--5--5--5--5--5-|
  |
  |GTR II
c#|-------------------------------------------------|
G#|--------------3-----------------------3----------|
 E|-------------------------------------------------|
 B|-----------0-----------------------0-------------|
F#|-------------------------------------------------|
 B|-------------------------------------------------|

   GTR I
c#|-------------------------------------------------|
G#|-------------------------------------------------|
 E|-------------------------------------------------|
 B|--8-----8--8--8--8--8--8--8--8--8--8--8--8--8--8-|
F#|--8-----8--8--8--8--8--8--8--8--8--8--8--8--8--8-|
 B|--8-----8--8--8--8--8--8--8--8--8--8--8--8--8--8-|
  |
  |GTR II
c#|-------------------------------------------------|
G#|--------------3-----------------------3----------|
 E|-------------------------------------------------|
 B|-----------0-----------------------0-------------|
F#|-------------------------------------------------|
 B|-------------------------------------------------|

   GTR I
c#|-------------------------------------------------|
G#|-------------------------------------------------|
 E|-------------------------------------------------|
 B|--5--5--5--5--5--5--5--5--5--5--5--5--5--5--5--5-|
F#|--5--5--5--5--5--5--5--5--5--5--5--5--5--5--5--5-|
 B|--5--5--5--5--5--5--5--5--5--5--5--5--5--5--5--5-|
  |
  |GTR II
c#|-------------------------------------------------|
G#|--------------3-----------------------3----------|
 E|-------------------------------------------------|
 B|-----------0-----------------------0-------------|
F#|-------------------------------------------------|
 B|-------------------------------------------------|

   GTR I
c#|-------------------------------------------------|
G#|-------------------------------------------------|
 E|-------------------------------------------------|
 B|--8-----8--8--8--8--8--8--8--8--8--8--8--8--8--8-|
F#|--8-----8--8--8--8--8--8--8--8--8--8--8--8--8--8-|
 B|--8-----8--8--8--8--8--8--8--8--8--8--8--8--8--8-|
  |
  |GTR II
c#|-------------------------------------------------|
G#|--------------3-----------------------3----------|
 E|-------------------------------------------------|
 B|-----------0-----------------------0-------------|
F#|-------------------------------------------------|
 B|-------------------------------------------------|

   GTR I
c#|-------------------------------------------------|
G#|-------------------------------------------------|
 E|-------------------------------------------------|
 B|--5-----5--5--5--5--5--5--5--5--5--5--5--5--5--5-|
F#|--5-----5--5--5--5--5--5--5--5--5--5--5--5--5--5-|
 B|--5-----5--5--5--5--5--5--5--5--5--5--5--5--5--5-|
  |
  |GTR II
c#|-------------------------------------------------|
G#|--------------3-----------------------3----------|
 E|-------------------------------------------------|
 B|-----------0-----------------------0-------------|
F#|-------------------------------------------------|
 B|-------------------------------------------------|

   GTR I
c#|-------------------------------------------------|
G#|-------------------------------------------------|
 E|-------------------------------------------------|
 B|--8-----8--8--8--8--8--8--8--8--8--8--8--8--8--8-|
F#|--8-----8--8--8--8--8--8--8--8--8--8--8--8--8--8-|
 B|--8-----8--8--8--8--8--8--8--8--8--8--8--8--8--8-|
  |
  |GTR II
c#|-------------------------------------------------|
G#|--------------3-----------------------3----------|
 E|-------------------------------------------------|
 B|-----------0-----------------------0-------------|
F#|-------------------------------------------------|
 B|-------------------------------------------------|

   GTR I
c#|-------------------------------------------------|
G#|-------------------------------------------------|
 E|-------------------------------------------------|
 B|--5-----5--5--5--5--5--5--5--5--5--5--5--5--5--5-|
F#|--5-----5--5--5--5--5--5--5--5--5--5--5--5--5--5-|
 B|--5-----5--5--5--5--5--5--5--5--5--5--5--5--5--5-|
  |
  |GTR II
c#|-------------------------------------------------|
G#|--------------3-----------------------3----------|
 E|-------------------------------------------------|
 B|-----------0-----------------------0-------------|
F#|-------------------------------------------------|
 B|-------------------------------------------------|

Intro - 1x


| b  bend
| r  release bend
|trp triplet
|PH. pinch harmonic
|fbk feedback
| .  palm-mute
| /  slide up
| \  slide down
| h  hammer-on
| p  pull-off
| ~  vibrato
|(7) harmonic
| x  Mute note
===============================================================================

Tap to rate this tab
 
# A B C D E F G H I J K L M N O P Q R S T U V W X Y Z