Song name
# A B C D E F G H I J K L M N O P Q R S T U V W X Y Z

Theory Of A Deadman - The Last Song tab

The Last Song
Theory of A Deadman
Theory of A Deadman (2002)

Words & Music by Tyler Connolly and Chad Kroeger

GTR I - Drop B Tuning "Tyler Connolly" Electric (c#,G#,E,B,F#,B)
GTR II - Drop B Tuning "Dave Brenner" Electric (c#,G#,E,B,F#,B)
GTR III - Drop B Tuning "Tyler Connolly" Acoustic (c#,G#,E,B,F#,B)
GTR IV - Drop B Tuning "Dave Brenner" Acoustic (c#,G#,E,B,F#,B)

Intro

   GTR III
c#|-------------------------------------|-------------------------------------|
G#|--------3--------3--------5--------5-|--------8--------8-------10----------|
 E|-----------0-----------------0-------|-----------0-----------------0-------|
 B|-------------------------------------|-----------------------------------0-|
F#|--3-----------3-----3/-5--------5----|--5/-7--------7-----7/10-------10----|
 B|-------------------------------------|-------------------------------------|

   GTR III
c#|-------------------------------------|-------------------------------------|
G#|--------3--------3--------5--------5-|--------8--------8-------10----------|
 E|-----------0-----------------0-------|-----------0-----------------0-------|
 B|-------------------------------------|-----------------------------------0-|
F#|--3-----------3-----3/-5--------5----|--5/-7--------7-----7/10-------10----|
 B|-------------------------------------|-------------------------------------|

   GTR III
c#|-------------------------------------|-------------------------------------|
G#|--------3--------3--------5--------5-|--------8--------8--------7-----7/-8-|
 E|-----------0-----------------0-------|-----------0-------------------------|
 B|-------------------------------------|-----------------------------0-------|
F#|--3-----------3-----3/-5--------5----|--5/-7--------7-----7/-9-------------|
 B|-------------------------------------|-------------------------------------|
  |
  |GTR IV
c#|-15-------15-------15-------15-------|-14-------14-------14-------14-------|
G#|----19-------19-------19-------19----|----17-------17-------17-------17----|
 E|-------19-------19-------19-------19-|-------16-------16-------16-------16-|
 B|-------------------------------------|-------------------------------------|
F#|-------------------------------------|-------------------------------------|
 B|-------------------------------------|-------------------------------------|

   GTR II
c#|-------------------------------------|-------------------------------------|
G#|-------------------------------------|-------------------------------------|
 E|-------------------------------------|-------------------------------------|
 B|-------------------------------------|-------------------(5)(5)---(5)---(5)|
F#|-------------------------------------|-------------------------------------|
 B|-------------------------------------|-------------------------------------|
  |
  |GTR III
c#|-------------------------------------|-------------------------------------|
G#|--------3--------3--------3--------3-|--------5--------5--------5--------5-|
 E|-----------0-----------------0-------|-----------0-----------------0-------|
 B|-------------------------------------|-------------------------------------|
F#|--3-----------3-----3-----------3----|--3/-5--------5-----5-----------5----|
 B|-------------------------------------|-------------------------------------|
  |
  |GTR IV
c#|-15-------15-------15-------15-------|-15-------15-------------------------|
G#|----19-------19-------19-------19----|----19-------19----------------------|
 E|-------19-------19-------19-------19-|-------19-------19-------------------|
 B|-------------------------------------|-------------------------------------|
F#|-------------------------------------|-------------------------------------|
 B|-------------------------------------|-------------------------------------|

Main Riff

   GTR I,II
c#|-------------------------------------|-------------------------------------|
G#|-------------------------------------|--8-----------------8----------------|
 E|-------------------------------------|--7-----------------7----------------|
 B|--2-----------------2----------------|--5-----------------5-----5--5-------|
F#|--2-----------------2----------------|--5-----------------5-----5--5--4--5-|
 B|--2-----------------2----------------|--5-----------------5-----5--5--4--5-|
                                                                         .  .

   GTR I,II
c#|-------------------------------------|-------------------------------------|
G#|-------------------------------------|-------------------------------------|
 E|-------------------------------------|-------------------------------------|
 B|--2-----------------2----------------|--5--4-----4-----4--5--4-----4-----4-|
F#|--2-----------------2----------------|--5--4-----4-----4--5--4-----4-----4-|
 B|--2-----------------2----------------|--5--4-----4-----4--5--4-----4-----4-|
     
   GTR I,II
c#|-------------------------------------|-------------------------------------|
G#|-------------------------------------|--8-----------------8----------------|
 E|-------------------------------------|--7-----------------7----------------|
 B|--2-----------------2----------------|--5-----------------5----------------|
F#|--2-----------------2----------------|--5-----------------5----------------|
 B|--2-----------------2----------------|--5-----------------5-----7br---7br--|
                                                                             
   GTR I,II
c#|-------------------------------------|-------------------------------------|
G#|-------------------------------------|--8----------------------------------|
 E|-------------------------------------|--7----------------------------------|
 B|--2-----------------2----------------|--5----------------------------------|
F#|--2-----------------2----------------|--5----------------------------------|
 B|--2-----------------2----------------|--5----------------------------------|

Verse

   GTR III
c#|-------------------------------------|-------------------------------------|
G#|--------3--------3--------5--------5-|--------8--------8-------10----------|
 E|-----------0-----------------0-------|-----------0-----------------0-------|
 B|-------------------------------------|-----------------------------------0-|
F#|--3-----------3-----3/-5--------5----|--5/-7--------7-----7/10-------10----|
 B|-------------------------------------|-------------------------------------|

   GTR III
c#|-------------------------------------|-------------------------------------|
G#|--------3--------3--------5--------5-|--------8--------8-------10----------|
 E|-----------0-----------------0-------|-----------0-----------------0-------|
 B|-------------------------------------|-----------------------------------0-|
F#|--3-----------3-----3/-5--------5----|--5/-7--------7-----7/10-------10----|
 B|-------------------------------------|-------------------------------------|

   GTR III
c#|-------------------------------------|-------------------------------------|
G#|--------3--------3--------5--------5-|--------8--------8-------10----------|
 E|-----------0-----------------0-------|-----------0-----------------0-------|
 B|-------------------------------------|-----------------------------------0-|
F#|--3-----------3-----3/-5--------5----|--5/-7--------7-----7/10-------10----|
 B|-------------------------------------|-------------------------------------|

   GTR III
c#|-------------------------------------|-------------------------------------|
G#|--------3--------3--------5--------5-|--------8--------8-------10----------|
 E|-----------0-----------------0-------|-----------0-----------------0-------|
 B|-------------------------------------|-----------------------------------0-|
F#|--3-----------3-----3/-5--------5----|--5/-7--------7-----7/10-------10----|
 B|-------------------------------------|-------------------------------------|

   GTR III
c#|-------------------------------------|-------------------------------------|
G#|--------3--------3--------5--------5-|--------8--------8-------10----------|
 E|-----------0-----------------0-------|-----------0-----------------0-------|
 B|-------------------------------------|-----------------------------------0-|
F#|--3-----------3-----3/-5--------5----|--5/-7--------7-----7/10-------10----|
 B|-------------------------------------|-------------------------------------|

   GTR III
c#|-------------------------------------|-------------------------------------|
G#|--------3--------3--------5--------5-|--------8--------8-------10----------|
 E|-----------0-----------------0-------|-----------0-----------------0-------|
 B|-------------------------------------|-----------------------------------0-|
F#|--3-----------3-----3/-5--------5----|--5/-7--------7-----7/10-------10----|
 B|-------------------------------------|-------------------------------------|

   GTR III
c#|-------------------------------------|-------------------------------------|
G#|--------3--------3--------5--------5-|--------7--------7--------7----------|
 E|-----------0-----------------0-------|-----------0-----------------0-----9-|
 B|-------------------------------------|--------------------------------0----|
F#|--3-----------3-----3/-5--------5----|--5/-7--------7-----7/-9-------------|
 B|-------------------------------------|-------------------------------------|

   GTR II
c#|-------------------------------------|-------------------------------------|
G#|-------------------------------------|-------------------------------------|
 E|-------------------------------------|-------------------------------------|
 B|-------------------------------------|-------------------(5)(5)---(5)---(5)|
F#|-------------------------------------|-------------------------------------|
 B|-------------------------------------|-------------------------------------|
  |
  |GTR III
c#|-------------------------------------|-------------------------------------|
G#|--------3--------3--------3--------3-|--------5--------5--------5--------5-|
 E|-----------0-----------------0-------|-----------0-----------------0-------|
 B|-------------------------------------|-------------------------------------|
F#|--3-----------3-----3-----------3----|--3/-5--------5-----5-----------5----|
 B|-------------------------------------|-------------------------------------|

Chorus

   GTR I,II
c#|-------------------------------------|-------------------------------------|
G#|-------------------------------------|--8-----------------8-----8--8-------|
 E|-------------------------------------|--7-----------------7-----7--7-------|
 B|--2-----------------2----------------|--5-----------------5-----5--5-------|
F#|--2-----------------2----------------|--5-----------------5-----5--5-------|
 B|--2-----------------2----------------|--5-----------------5-----5--5-------|
                                                                              

   GTR I,II
c#|-------------------------------------|-------------------------------------|
G#|-------------------------------------|-----8-----8--8--8-----8-----8--8--8-|
 E|-------------------------------------|-----7-----7--7--7-----7-----7--7--7-|
 B|--2-----------------2----------------|-----5-----5--5--5-----5-----5--5--5-|
F#|--2-----------------2----------------|-----5-----5--5--5-----5-----5--5--5-|
 B|--2-----------------2----------------|-----5-----5--5--5-----5-----5--5--5-|
     
   GTR I,II
c#|-------------------------------------|-------------------------------------|
G#|-------------------------------------|--8-----------------8----------------|
 E|-------------------------------------|--7-----------------7----------------|
 B|--2-----------------2----------------|--5-----------------5----------------|
F#|--2-----------------2----------------|--5-----------------5----------------|
 B|--2-----------------2----------------|--5-----------------5-----7br---7br--|
                                                                             
   GTR I,II
c#|-------------------------------------|-------------------------------------|
G#|-------------------------------------|--8----------------------------------|
 E|-------------------------------------|--7----------------------------------|
 B|--2-----------------2----------------|--5----------------------------------|
F#|--2-----------------2----------------|--5----------------------------------|
 B|--2-----------------2----------------|--5----------------------------------|

Verse 2

   GTR I,III
c#|-------------------------------------|-------------------------------------|
G#|--------3--------3--------5--------5-|--------8--------8-------10----------|
 E|-----------0-----------------0-------|-----------0-----------------0-------|
 B|-------------------------------------|-----------------------------------0-|
F#|--3-----------3-----3/-5--------5----|--5/-7--------7-----7/10-------10----|
 B|-------------------------------------|-------------------------------------|

   GTR I,III
c#|-------------------------------------|-------------------------------------|
G#|--------3--------3--------5--------5-|--------8--------8-------10----------|
 E|-----------0-----------------0-------|-----------0-----------------0-------|
 B|-------------------------------------|-----------------------------------0-|
F#|--3-----------3-----3/-5--------5----|--5/-7--------7-----7/10-------10----|
 B|-------------------------------------|-------------------------------------|

   GTR I,III
c#|-------------------------------------|-------------------------------------|
G#|--------3--------3--------5--------5-|--------8--------8-------10----------|
 E|-----------0-----------------0-------|-----------0-----------------0-------|
 B|-------------------------------------|-----------------------------------0-|
F#|--3-----------3-----3/-5--------5----|--5/-7--------7-----7/10-------10----|
 B|-------------------------------------|-------------------------------------|

   GTR I,III
c#|-------------------------------------|-------------------------------------|
G#|--------3--------3--------5--------5-|--------8--------8-------10----------|
 E|-----------0-----------------0-------|-----------0-----------------0-------|
 B|-------------------------------------|-----------------------------------0-|
F#|--3-----------3-----3/-5--------5----|--5/-7--------7-----7/10-------10----|
 B|-------------------------------------|-------------------------------------|

   GTR I,III
c#|-------------------------------------|-------------------------------------|
G#|--------3--------3--------5--------5-|--------7--------7--------7----------|
 E|-----------0-----------------0-------|-----------0-----------------0-----9-|
 B|-------------------------------------|--------------------------------0----|
F#|--3-----------3-----3/-5--------5----|--5/-7--------7-----7/-9-------------|
 B|-------------------------------------|-------------------------------------|

   GTR II
c#|-------------------------------------|-------------------------------------|
G#|-------------------------------------|-------------------------------------|
 E|-------------------------------------|-------------------------------------|
 B|-------------------------------------|-------------------(5)(5)---(5)---(5)|
F#|-------------------------------------|-------------------------------------|
 B|-------------------------------------|-------------------------------------|
  |
  |GTR I,III
c#|-------------------------------------|-------------------------------------|
G#|--------3--------3--------3--------3-|--------5--------5--------5--------5-|
 E|-----------0-----------------0-------|-----------0-----------------0-------|
 B|-------------------------------------|-------------------------------------|
F#|--3-----------3-----3-----------3----|--3/-5--------5-----5-----------5----|
 B|-------------------------------------|-------------------------------------|

Chorus

Bridge

   GTR I,II
c#|-------------------------------------|-------------------------------------|
G#|-------------------------------------|-------------------------------------|
 E|-------------------------------------|-------------------------------------|
 B|--7-----------------7----------------|-10----------------10----------------|
F#|--7-----------------7----------------|-10----------------10----------------|
 B|--7-----------------7----------------|-10----------------10----------------|

   GTR I,II
c#|-------------------------------------|-------------------------------------|
G#|-------------------------------------|-------------------------------------|
 E|-------------------------------------|-------------------------------------|
 B|--7-----------------7----------------|-10----------------10----------------|
F#|--7-----------------7----------------|-10----------------10----------------|
 B|--7-----------------7----------------|-10----------------10----------------|

   GTR I,II
c#|-------------------------------------|-------------------------------------|
G#|-------------------------------------|-------------------------------------|
 E|-------------------------------------|-------------------------------------|
 B|--7-----------------7----------------|-10----------------10----------------|
F#|--7-----------------7----------------|-10----------------10----------------|
 B|--7-----------------7----------------|-10----------------10----------------|

Guitar Solo

   GTR I
c#|-------------------------------------|-------------------------------------|
G#|-----------------------------------8-|--7~----------------------------0--2-|
 E|-------------------------------------|-------------------------------------|
 B|-------------------------------------|-------------------------------------|
F#|-/7~---------------------------------|-------------------------------------|
 B|-------------------------------------|-------------------------------------|
  |
  |GTR II
c#|-------------------------------------|-------------------------------------|
G#|-------------------------------------|--8-----------------8----------------|
 E|-------------------------------------|--7-----------------7----------------|
 B|--2-----------------2----------------|--5-----------------5----------------|
F#|--2-----------------2----------------|--5-----------------5----------------|
 B|--2-----------------2----------------|--5-----------------5----------------|

   GTR I
c#|-------------------------------------|-------------------------------------|
G#|--5~-------------------------------8-|--7~----------------------2-----2----|
 E|-------------------------------------|-------------------------------------|
 B|-------------------------------------|-------------------------------------|
F#|-------------------------------------|-------------------------------------|
 B|-------------------------------------|-------------------------------------|
  |
  |GTR II
c#|-------------------------------------|-------------------------------------|
G#|-------------------------------------|--8-----------------8----------------|
 E|-------------------------------------|--7-----------------7----------------|
 B|--2-----------------2----------------|--5-----------------5----------------|
F#|--2-----------------2----------------|--5-----------------5----------------|
 B|--2-----------------2----------------|--5-----------------5-----7br---7br--|

   GTR I
c#|-------------------------------------|-------------------------------------|
G#|--5-----------------7----------------|--8----------------12----------------|
 E|-------------------------------------|-------------------------------------|
 B|-------------------------------------|-------------------------------------|
F#|-------------------------------------|-------------------------------------|
 B|-------------------------------------|-------------------------------------|
  |
  |GTR II
c#|-------------------------------------|-------------------------------------|
G#|-------------------------------------|--8-----------------8----------------|
 E|-------------------------------------|--7-----------------7----------------|
 B|--2-----------------2----------------|--5-----------------5----------------|
F#|--2-----------------2----------------|--5-----------------5----------------|
 B|--2-----------------2----------------|--5-----------------5----------------|

   GTR I
c#|-------------------------------------|-------------------|-------------------|
G#|--7--------------------------8-------|-10----------------|-------------------|
 E|-------------------------------------|-------------------|-------------------|
 B|-------------------------------------|-------------------|-------------------|
F#|-------------------------------------|-------------------|-------------------|
 B|-------------------------------------|-------------------|-------------------|
  |
  |GTR II
c#|-------------------------------------|-------------------|-------------------|
G#|-------------------------------------|-------------------|-------------------|
 E|-------------------------------------|--5----------------|-------------------|
 B|--2-----------------2----------------|--5----------------|-------------------|
F#|--2-----------------2----------------|--3----------------|-------------------|
 B|--2-----------------2----------------|-------------------|-------------------|

Interlude

   GTR I
c#|-------------------------------------|-------------------------------------|
G#|/12----------------------------------|-------------------------------------|
 E|-------------------------------------|-------------------------------------|
 B|-------------------------------------|-------------------------------------|
F#|-------------------------------------|-------------------------------------|
 B|-------------------------------------|-------------------------------------|
  |
  |GTR III
c#|-------------------------------------|-------------------------------------|
G#|--------3--------3--------5--------5-|--------8--------8-------10----------|
 E|-----------0-----------------0-------|-----------0-----------------0-------|
 B|-------------------------------------|-----------------------------------0-|
F#|--3-----------3-----3/-5--------5----|--5/-7--------7-----7/10-------10----|
 B|-------------------------------------|-------------------------------------|

   GTR III
c#|-------------------------------------|-------------------------------------|
G#|--------3--------3--------5--------5-|--------8--------8-------10----------|
 E|-----------0-----------------0-------|-----------0-----------------0-------|
 B|-------------------------------------|-----------------------------------0-|
F#|--3-----------3-----3/-5--------5----|--5/-7--------7-----7/10-------10----|
 B|-------------------------------------|-------------------------------------|

   GTR III
c#|-------------------------------------|-------------------------------------|
G#|--------3--------3--------5--------5-|--------8--------8-------10----------|
 E|-----------0-----------------0-------|-----------0-----------------0-------|
 B|-------------------------------------|-----------------------------------0-|
F#|--3-----------3-----3/-5--------5----|--5/-7--------7-----7/10-------10----|
 B|-------------------------------------|-------------------------------------|

   GTR III
c#|-------------------------------------|-------------------------------------|
G#|--------3--------3--------5--------5-|--------8--------8-------10----------|
 E|-----------0-----------------0-------|-----------0-----------------0-------|
 B|-------------------------------------|-----------------------------------0-|
F#|--3-----------3-----3/-5--------5----|--5/-7--------7-----7/10-------10----|
 B|-------------------------------------|-------------------------------------|

   GTR I,III
c#|-------------------------------------|-------------------------------------|
G#|--------3--------3--------5--------5-|--------7--------7--------7----------|
 E|-----------0-----------------0-------|-----------0-----------------0-----9-|
 B|-------------------------------------|--------------------------------0----|
F#|--3-----------3-----3/-5--------5----|--5/-7--------7-----7/-9-------------|
 B|-------------------------------------|-------------------------------------|

   GTR I,III
c#|-------------------------------------|-------------------------------------|
G#|--------3--------3--------3--------3-|--------5--------5--------5--------5-|
 E|-----------0-----------------0-------|-----------0-----------------0-------|
 B|-------------------------------------|-------------------------------------|
F#|--3-----------3-----3-----------3----|--3/-5--------5-----5-----------5----|
 B|-------------------------------------|-------------------------------------|

Chorus

Outro

   GTR I,II
c#|-------------------------------------|-------------------------------------|
G#|-------------------------------------|-----8-----8--8--8-----8-----8--8--8-|
 E|-------------------------------------|-----7-----7--7--7-----7-----7--7--7-|
 B|--2-----------------2----------------|-----5-----5--5--5-----5-----5--5--5-|
F#|--2-----------------2----------------|-----5-----5--5--5-----5-----5--5--5-|
 B|--2-----------------2----------------|-----5-----5--5--5-----5-----5--5--5-|

   GTR I,II
c#|-------------------------------------|-------------------------------------|
G#|-------------------------------------|-----8-----8--8--8-----8-----8--8--8-|
 E|-------------------------------------|-----7-----7--7--7-----7-----7--7--7-|
 B|--2-----------------2----------------|-----5-----5--5--5-----5-----5--5--5-|
F#|--2-----------------2----------------|-----5-----5--5--5-----5-----5--5--5-|
 B|--2-----------------2----------------|-----5-----5--5--5-----5-----5--5--5-|

   GTR I,II
c#|-------------------------------------|-------------------------------------|
G#|-------------------------------------|-----8-----8--8--8-----8-----8--8--8-|
 E|-------------------------------------|-----7-----7--7--7-----7-----7--7--7-|
 B|--2-----------------2----------------|-----5-----5--5--5-----5-----5--5--5-|
F#|--2-----------------2----------------|-----5-----5--5--5-----5-----5--5--5-|
 B|--2-----------------2----------------|-----5-----5--5--5-----5-----5--5--5-|

   GTR I,II
c#|-------------------------------------|-------------------------------------|
G#|-------------------------------------|-----8-----8--8--8-----8-----8--8--8-|
 E|-------------------------------------|-----7-----7--7--7-----7-----7--7--7-|
 B|--2-----------------2----------------|-----5-----5--5--5-----5-----5--5--5-|
F#|--2-----------------2----------------|-----5-----5--5--5-----5-----5--5--5-|
 B|--2-----------------2----------------|-----5-----5--5--5-----5-----5--5--5-|

   GTR I,II
c#|-------------------------------------|-------------------------------------|
G#|-------------------------------------|-------------------------------------|
 E|-------------------------------------|-------------------------------------|
 B|--2----------------------------------|-------------------------------------|
F#|--2----------------------------------|-------------------------------------|
 B|--2----------------------------------|-------------------------------------|

   GTR I
c#|-15----------------15----------------|-15----------------15----------------|
G#|-------19----------------19----------|-------19----------------19----------|
 E|-------------19----------------19----|-------------19----------------19----|
 B|-------------------------------------|-------------------------------------|
F#|-------------------------------------|-------------------------------------|
 B|-------------------------------------|-------------------------------------|

   GTR I
c#|-15----------------15----------------|-15----------------15----------------|
G#|-------19----------------19----------|-------19----------------19----------|
 E|-------------19----------------19----|-------------19----------------19----|
 B|-------------------------------------|-------------------------------------|
F#|-------------------------------------|-------------------------------------|
 B|-------------------------------------|-------------------------------------|

| b  bend
| r  release bend
|trp triplet
|PH. pinch harmonic
|fbk feedback
| .  palm-mute
| /  slide up
| \  slide down
| h  hammer-on
| p  pull-off
| ~  vibrato
|(7) harmonic
| x  Mute note
===============================================================================

Tap to rate this tab
 
# A B C D E F G H I J K L M N O P Q R S T U V W X Y Z