Theory Of A Deadman - Make Up Your Mind tab

Make Up Your Mind
Theory of A Deadman
Theory of A Deadman (2002)

Words & Music by Tyler Connolly and Chad Kroeger

GTR I - Drop B Tuning "Tyler Connolly" Electric (c#,G#,E,B,F#,B)
GTR II - Drop B Tuning "Dave Brenner" Electric (c#,G#,E,B,F#,B)
GTR III - Drop B Tuning "Tyler Connolly" Acoustic (c#,G#,E,B,F#,B)

Verse

   GTR I
c#|-----------------------5--------------5----------|
G#|-----------------------5--------------5----------|
 E|--7-----------7--------7--------------7----------|
 B|--7-----------7--------7--------------7----------|
F#|--5-----------5--------5--------------5----------|
 B|-------------------------------------------------|

   GTR I
c#|-----------------------3--------------3----------|
G#|-----------------------3--------------3----------|
 E|--7-----------7--------7--------------7----------|
 B|--5-----------5--------5--------------5----------|
F#|--3-----------3--------3--------------3----------|
 B|-------------------------------------------------|

   GTR I
c#|-------------------------------------------------|
G#|-------------------------------------------------|
 E|--7-----------7--------7--------------7----------|
 B|--7-----------7--------7--------------7----------|
F#|--5-----------5--------5--------------5----------|
 B|--5-----------5--------5--------------5----------|

   GTR I
c#|-------------------------------------------------|
G#|-------------------------------------------------|
 E|--7-----------7--------5--------------7----------|
 B|--5-----------5--------3--------------5----------|
F#|--3-----------3--------3--------------5----------|
 B|-----------------------3--------------5----------|

   GTR I
c#|-----------------------5--------------5----------|
G#|-----------------------5--------------5----------|
 E|--7-----------7--------7--------------7----------|
 B|--7-----------7--------7--------------7----------|
F#|--5-----------5--------5--------------5----------|
 B|-------------------------------------------------|

   GTR I
c#|-----------------------3--------------3----------|
G#|-----------------------3--------------3----------|
 E|--7-----------7--------7--------------7----------|
 B|--5-----------5--------5--------------5----------|
F#|--3-----------3--------3--------------3----------|
 B|-------------------------------------------------|

   GTR I
c#|-------------------------------------------------|
G#|-------------------------------------------------|
 E|--7-----------7--------7--------------7----------|
 B|--7-----------7--------7--------------7----------|
F#|--5-----------5--------5--------------5----------|
 B|--5-----------5--------5--------------5----------|

   GTR I
c#|-------------------------------------------------|
G#|-------------------------------------------------|
 E|--7----------------------------------------------|
 B|--5----------------------------------------------|
F#|--3----------------------------------------------|
 B|-------------------------------------------------|

Pre Chorus

   GTR I,II
c#|-------------------------------------------------|
G#|-------------------------------------------------|
 E|-------------------------------------------------|
 B|-------------------------------------------------|
F#|--3-----3-----3-----3-----3-----3-----3-----3----|
 B|--3-----3-----3-----3-----3-----3-----3-----3----|
     .     .     .     .     .     .     .     .

   GTR I,II
c#|-------------------------------------------------|
G#|-------------------------------------------------|
 E|-------------------------------------------------|
 B|-------------------------------------------------|
F#|--5-----5-----5-----5-----5----------------------|
 B|--5-----5-----5-----5-----5----------------------|
     .     .     .     .     .                  

Chorus

   GTR I
c#|-------------------------------------------------|
G#|-------------------------------------------------|
 E|--7-----7-----7-----7----10----10----10----10----|
 B|--7-----7-----7-----7----10----10----10----10----|
F#|--5-----5-----5-----5-----8-----8-----8-----8----|
 B|-------------------------------------------------|
  |
  |GTR II
c#|-------------------------------------------------|
G#|--3-----3-----3-----3----------------------------|
 E|--2-----2-----2-----2----------------------------|
 B|--0-----0-----0-----0-----3-----3-----3-----3----|
F#|--0-----0-----0-----0-----3-----3-----3-----3----|
 B|--0-----0-----0-----0-----3-----3-----3-----3----|

   GTR I
c#|-------------------------------------------------|
G#|-------------------------------------------------|
 E|-12----12----12----12----12----12----12----12----|
 B|-12----12----12----12----12----12----12----12----|
F#|-10----10----10----10----10----10----10----10----|
 B|-------------------------------------------------|
  |
  |GTR II
c#|-------------------------------------------------|
G#|-------------------------------------------------|
 E|-------------------------------------------------|
 B|--5-----5-----5-----5-----5-----5-----5-----5----|
F#|--5-----5-----5-----5-----5-----5-----5-----5----|
 B|--5-----5-----5-----5-----5-----5-----5-----5----|

   GTR I
c#|-------------------------------------------------|
G#|-------------------------------------------------|
 E|--7-----7-----7-----7----10----10----10----10----|
 B|--7-----7-----7-----7----10----10----10----10----|
F#|--5-----5-----5-----5-----8-----8-----8-----8----|
 B|-------------------------------------------------|
  |
  |GTR II
c#|-------------------------------------------------|
G#|--3-----3-----3-----3----------------------------|
 E|--2-----2-----2-----2----------------------------|
 B|--0-----0-----0-----0-----3-----3-----3-----3----|
F#|--0-----0-----0-----0-----3-----3-----3-----3----|
 B|--0-----0-----0-----0-----3-----3-----3-----3----|

   GTR I
c#|-------------------------------------------------|
G#|-------------------------------------------------|
 E|-12----12----12----12----12----12----12----12----|
 B|-12----12----12----12----12----12----12----12----|
F#|-10----10----10----10----10----10----10----10----|
 B|-------------------------------------------------|
  |
  |GTR II
c#|-------------------------------------------------|
G#|-------------------------------------------------|
 E|-------------------------------------------------|
 B|--5-----5-----5-----5-----5-----5-----5-----5----|
F#|--5-----5-----5-----5-----5-----5-----5-----5----|
 B|--5-----5-----5-----5-----5-----5-----5-----5----|

   GTR I
c#|-------------------------------------------------|
G#|-------------------------------------------------|
 E|--7-----7-----7-----7-----9-----9-----9-----9----|
 B|--7-----7-----7-----7-----9-----9-----9-----9----|
F#|--5-----5-----5-----5-----7-----7-----7-----7----|
 B|-------------------------------------------------|
  |
  |GTR II
c#|-------------------------------------------------|
G#|--3-----3-----3-----3----------------------------|
 E|--2-----2-----2-----2----------------------------|
 B|--0-----0-----0-----0-----2-----2-----2-----2----|
F#|--0-----0-----0-----0-----2-----2-----2-----2----|
 B|--0-----0-----0-----0-----2-----2-----2-----2----|

   GTR I
c#|-------------------------------------------------|
G#|-------------------------------------------------|
 E|-10----10----10----10----12----12----12----12----|
 B|-10----10----10----10----12----12----12----12----|
F#|--8-----8-----8-----8----10----10----10----10----|
 B|-------------------------------------------------|
  |
  |GTR II
c#|-------------------------------------------------|
G#|-------------------------------------------------|
 E|-------------------------------------------------|
 B|--3-----3-----3-----3-----5-----5-----5-----5----|
F#|--3-----3-----3-----3-----5-----5-----5-----5----|
 B|--3-----3-----3-----3-----5-----5-----5-----5----|

   GTR I
c#|-------------------------------------------------|
G#|-------------------------------------------------|
 E|--7-----7-----7-----7----10----10----10----10----|
 B|--7-----7-----7-----7----10----10----10----10----|
F#|--5-----5-----5-----5-----8-----8-----8-----8----|
 B|-------------------------------------------------|
  |
  |GTR II
c#|-------------------------------------------------|
G#|--3-----3-----3-----3----------------------------|
 E|--2-----2-----2-----2----------------------------|
 B|--0-----0-----0-----0-----3-----3-----3-----3----|
F#|--0-----0-----0-----0-----3-----3-----3-----3----|
 B|--0-----0-----0-----0-----3-----3-----3-----3----|

Post Chorus

   GTR I
c#|-------------|-------------|-------------|
G#|-------------|-------------|-------------|
 E|-12----------|-10----------|-12----------|
 B|-12----------|-10----------|-12----------|
F#|-10----------|--8----------|-10----------|
 B|-------------|-------------|-------------|
  |
  |GTR II
c#|-------------|-------------|-------------|
G#|-------------|-------------|-------------|
 E|-------------|-------------|-------------|
 B|--5----------|--3----------|--5----------|
F#|--5----------|--3----------|--5----------|
 B|--5----------|--3----------|--5----------|

Verse 2

   GTR I,III
c#|-----------------------5--------------5-----5--5-|
G#|-----------------------5--------------5-----5--5-|
 E|--7-----------7--7-----7-----7--7-----7-----7--7-|
 B|--7-----------7--7-----7-----7--7-----7-----7--7-|
F#|--5-----------5--5-----5-----5--5-----5-----5--5-|
 B|-------------------------------------------------|

   GTR I,III
c#|-----------------------3--------------3-----3--3-|
G#|-----------------------3--------------3-----3--3-|
 E|--7-----------7--7-----7-----7--7-----7-----7--7-|
 B|--5-----------5--5-----5-----5--5-----5-----5--5-|
F#|--3-----------3--3-----3-----3--3-----3-----3--3-|
 B|-------------------------------------------------|

   GTR I,III
c#|-------------------------------------------------|
G#|-------------------------------------------------|
 E|--7-----------7--7-----7-----7--7-----7-----7--7-|
 B|--7-----------7--7-----7-----7--7-----7-----7--7-|
F#|--5-----------5--5-----5-----5--5-----5-----5--5-|
 B|--5-----------5--5-----5-----5--5-----5-----5--5-|

   GTR I,III
c#|-------------------------------------------------|
G#|-------------------------------------------------|
 E|--7-----------7-----7--7--5-----5-----7-----7----|
 B|--5-----------5-----5--5--3-----3-----5-----5----|
F#|--3-----------3-----3--3--3-----3-----5-----5----|
 B|--------------------------3-----3-----5-----5----|

   GTR I,III
c#|-----------------------5--------------5-----5--5-|
G#|-----------------------5--------------5-----5--5-|
 E|--7-----------7--7-----7-----7--7-----7-----7--7-|
 B|--7-----------7--7-----7-----7--7-----7-----7--7-|
F#|--5-----------5--5-----5-----5--5-----5-----5--5-|
 B|-------------------------------------------------|

   GTR I,III
c#|-----------------------3--------------3-----3--3-|
G#|-----------------------3--------------3-----3--3-|
 E|--7-----------7--7-----7-----7--7-----7-----7--7-|
 B|--5-----------5--5-----5-----5--5-----5-----5--5-|
F#|--3-----------3--3-----3-----3--3-----3-----3--3-|
 B|-------------------------------------------------|

   GTR I,III
c#|-------------------------------------------------|
G#|-------------------------------------------------|
 E|--7-----------7--7-----7-----7--7-----7-----7--7-|
 B|--7-----------7--7-----7-----7--7-----7-----7--7-|
F#|--5-----------5--5-----5-----5--5-----5-----5--5-|
 B|--5-----------5--5-----5-----5--5-----5-----5--5-|

   GTR I,III
c#|-------------------------------------------------|
G#|-------------------------------------------------|
 E|--7----------------------------------------------|
 B|--5----------------------------------------------|
F#|--3----------------------------------------------|
 B|-------------------------------------------------|

Pre Chorus

   GTR I,II
c#|-------------------------------------------------|
G#|-------------------------------------------------|
 E|-------------------------------------------------|
 B|-------------------------------------------------|
F#|--3-----3-----3-----3-----3-----3-----3-----3----|
 B|--3-----3-----3-----3-----3-----3-----3-----3----|
     .     .     .     .     .     .     .     .

   GTR I,II
c#|-------------------------------------------------|
G#|-------------------------------------------------|
 E|-------------------------------------------------|
 B|-------------------------------------------------|
F#|--5-----5-----5-----5-----5----------------------|
 B|--5-----5-----5-----5-----5----------------------|
     .     .     .     .     .                  

Chorus 2

   GTR I
c#|-------------------------------------------------|
G#|-------------------------------------------------|
 E|--7-----7-----7-----7----10----10----10----10----|
 B|--7-----7-----7-----7----10----10----10----10----|
F#|--5-----5-----5-----5-----8-----8-----8-----8----|
 B|-------------------------------------------------|
  |
  |GTR II
c#|-------------------------------------------------|
G#|--3-----3-----3-----3----------------------------|
 E|--2-----2-----2-----2----------------------------|
 B|--0-----0-----0-----0-----3-----3-----3-----3----|
F#|--0-----0-----0-----0-----3-----3-----3-----3----|
 B|--0-----0-----0-----0-----3-----3-----3-----3----|

   GTR I
c#|-------------------------------------------------|
G#|-------------------------------------------------|
 E|-12----12----12----12----12----12----12----12----|
 B|-12----12----12----12----12----12----12----12----|
F#|-10----10----10----10----10----10----10----10----|
 B|-------------------------------------------------|
  |
  |GTR II
c#|-------------------------------------------------|
G#|-------------------------------------------------|
 E|-------------------------------------------------|
 B|--5-----5-----5-----5-----5-----5-----5-----5----|
F#|--5-----5-----5-----5-----5-----5-----5-----5----|
 B|--5-----5-----5-----5-----5-----5-----5-----5----|

   GTR I
c#|-------------------------------------------------|
G#|-------------------------------------------------|
 E|--7-----7-----7-----7----10----10----10----10----|
 B|--7-----7-----7-----7----10----10----10----10----|
F#|--5-----5-----5-----5-----8-----8-----8-----8----|
 B|-------------------------------------------------|
  |
  |GTR II
c#|-------------------------------------------------|
G#|--3-----3-----3-----3----------------------------|
 E|--2-----2-----2-----2----------------------------|
 B|--0-----0-----0-----0-----3-----3-----3-----3----|
F#|--0-----0-----0-----0-----3-----3-----3-----3----|
 B|--0-----0-----0-----0-----3-----3-----3-----3----|

   GTR I
c#|-------------------------------------------------|
G#|-------------------------------------------------|
 E|-12----12----12----12----12----12----12----12----|
 B|-12----12----12----12----12----12----12----12----|
F#|-10----10----10----10----10----10----10----10----|
 B|-------------------------------------------------|
  |
  |GTR II
c#|-------------------------------------------------|
G#|-------------------------------------------------|
 E|-------------------------------------------------|
 B|--5-----5-----5-----5-----5-----5-----5-----5----|
F#|--5-----5-----5-----5-----5-----5-----5-----5----|
 B|--5-----5-----5-----5-----5-----5-----5-----5----|

   GTR I
c#|-------------------------------------------------|
G#|-------------------------------------------------|
 E|--7-----7-----7-----7-----9-----9-----9-----9----|
 B|--7-----7-----7-----7-----9-----9-----9-----9----|
F#|--5-----5-----5-----5-----7-----7-----7-----7----|
 B|-------------------------------------------------|
  |
  |GTR II
c#|-------------------------------------------------|
G#|--3-----3-----3-----3----------------------------|
 E|--2-----2-----2-----2----------------------------|
 B|--0-----0-----0-----0-----2-----2-----2-----2----|
F#|--0-----0-----0-----0-----2-----2-----2-----2----|
 B|--0-----0-----0-----0-----2-----2-----2-----2----|

   GTR I
c#|-------------------------------------------------|
G#|-------------------------------------------------|
 E|-10----10----10----10----12----12----12----12----|
 B|-10----10----10----10----12----12----12----12----|
F#|--8-----8-----8-----8----10----10----10----10----|
 B|-------------------------------------------------|
  |
  |GTR II
c#|-------------------------------------------------|
G#|-------------------------------------------------|
 E|-------------------------------------------------|
 B|--3-----3-----3-----3-----5-----5-----5-----5----|
F#|--3-----3-----3-----3-----5-----5-----5-----5----|
 B|--3-----3-----3-----3-----5-----5-----5-----5----|

   GTR I
c#|-------------------------------------------------|
G#|-------------------------------------------------|
 E|--7-----7-----7-----7----10----10----10----10----|
 B|--7-----7-----7-----7----10----10----10----10----|
F#|--5-----5-----5-----5-----8-----8-----8-----8----|
 B|-------------------------------------------------|
  |
  |GTR II
c#|-------------------------------------------------|
G#|--3-----3-----3-----3----------------------------|
 E|--2-----2-----2-----2----------------------------|
 B|--0-----0-----0-----0-----3-----3-----3-----3----|
F#|--0-----0-----0-----0-----3-----3-----3-----3----|
 B|--0-----0-----0-----0-----3-----3-----3-----3----|

   GTR I
c#|-------------------------------------------------|
G#|-------------------------------------------------|
 E|-12----12----12----12----12----12----12----12----|
 B|-12----12----12----12----12----12----12----12----|
F#|-10----10----10----10----10----10----10----10----|
 B|-------------------------------------------------|
  |
  |GTR II
c#|-------------------------------------------------|
G#|-------------------------------------------------|
 E|-------------------------------------------------|
 B|--5-----5-----5-----5-----5-----5-----5-----5----|
F#|--5-----5-----5-----5-----5-----5-----5-----5----|
 B|--5-----5-----5-----5-----5-----5-----5-----5----|

Bridge

   GTR I,II
c#|-------------------------------------------------|
G#|-------------------------------------------------|
 E|-------------------------------------------------|
 B|--8-----8-----8-----8-----8-----8-----8-----8----|
F#|--8-----8-----8-----8-----8-----8-----8-----8----|
 B|--8-----8-----8-----8-----8-----8-----8-----8----|

   GTR I,II
c#|-------------------------------------------------|
G#|-------------------------------------------------|
 E|-------------------------------------------------|
 B|--3-----3-----3-----3-----3-----3-----3-----3----|
F#|--3-----3-----3-----3-----3-----3-----3-----3----|
 B|--3-----3-----3-----3-----3-----3-----3-----3----|

   GTR I,II
c#|-------------------------------------------------|
G#|-------------------------------------------------|
 E|-------------------------------------------------|
 B|--5-----5-----5-----5-----5-----5-----5-----5----|
F#|--5-----5-----5-----5-----5-----5-----5-----5----|
 B|--5-----5-----5-----5-----5-----5-----5-----5----|

   GTR I,II
c#|-------------------------------------------------|
G#|-------------------------------------------------|
 E|-------------------------------------------------|
 B|--5-----5-----5-----5-----5-----5-----5-----5----|
F#|--5-----5-----5-----5-----5-----5-----5-----5----|
 B|--5-----5-----5-----5-----5-----5-----5-----5----|

Guitar Solo

   GTR I
c#|-------------------------------------------------|
G#|-------------------------------------------------|
 E|-------------------------------------------------|
 B|/12---------/15----14---------------/17----15----|
F#|-------------------------------------------------|
 B|-------------------------------------------------|
  |
  |GTR II
c#|-------------------------------------------------|
G#|--3-----3-----3-----3----------------------------|
 E|--2-----2-----2-----2----------------------------|
 B|--0-----0-----0-----0-----3-----3-----3-----3----|
F#|--0-----0-----0-----0-----3-----3-----3-----3----|
 B|--0-----0-----0-----0-----3-----3-----3-----3----|

   GTR I
c#|-------------------------------------------------|
G#|-------------------------------------------------|
 E|-------------------------------------------------|
 B|------------/19----17----------------------------|
F#|-------------------------------------------------|
 B|-------------------------------------------------|
  |
  |GTR II
c#|-------------------------------------------------|
G#|-------------------------------------------------|
 E|-------------------------------------------------|
 B|--5-----5-----5-----5-----5-----5-----------3----|
F#|--5-----5-----5-----5-----5-----5-----------3----|
 B|--5-----5-----5-----5-----5-----5-----------3----|

   GTR I
c#|-------------------------------------------------|
G#|-------------------------------------------------|
 E|------------------------------------/17----------|
 B|-16---------/12----10----------12----------------|
F#|-------------------------------------------------|
 B|-------------------------------------------------|
  |
  |GTR II
c#|-------------------------------------------------|
G#|--3-----3-----3-----3----------------------------|
 E|--2-----2-----2-----2----------------------------|
 B|--0-----0-----0-----0-----2-----2-----2-----2----|
F#|--0-----0-----0-----0-----2-----2-----2-----2----|
 B|--0-----0-----0-----0-----2-----2-----2-----2----|

   GTR I
c#|-------------------------------------------------|
G#|-------15----18----------------------------------|
 E|-------------------17-----------------7/---------|
 B|-------------------------------------------------|
F#|-------------------------------------------------|
 B|-------------------------------------------------|
  |
  |GTR II
c#|-------------------------------------------------|
G#|-------------------------------------------------|
 E|-------------------------------------------------|
 B|--3-----3-----3-----3-----5-----5-----------3----|
F#|--3-----3-----3-----3-----5-----5-----------3----|
 B|--3-----3-----3-----3-----5-----5-----------3----|

   GTR I
c#|-------------------------------------------------|
G#|------------/18----17-----------------9/---------|
 E|-19----------------------------------------------|
 B|-------------------------------------------------|
F#|-------------------------------------------------|
 B|-------------------------------------------------|
  |
  |GTR II
c#|-------------------------------------------------|
G#|--3-----3-----3-----3----------------------------|
 E|--2-----2-----2-----2----------------------------|
 B|--0-----0-----0-----0-----3-----3-----3-----3----|
F#|--0-----0-----0-----0-----3-----3-----3-----3----|
 B|--0-----0-----0-----0-----3-----3-----3-----3----|

   GTR I
c#|-------------------------------------------------|
G#|-22----------------------------------------------|
 E|-------------------------------------------------|
 B|-------------------------------------------------|
F#|-------------------------------------------------|
 B|-------------------------------------------------|
  |
  |GTR II
c#|-------------------------------------------------|
G#|-------------------------------------------------|
 E|-------------------------------------------------|
 B|--5----------------------------------------------|
F#|--5----------------------------------------------|
 B|--5----------------------------------------------|

Verse 3

   GTR III
c#|-----------------------5--------------5-----5--5-|
G#|-----------------------5--------------5-----5--5-|
 E|--7-----------7--7-----7-----7--7-----7-----7--7-|
 B|--7-----------7--7-----7-----7--7-----7-----7--7-|
F#|--5-----------5--5-----5-----5--5-----5-----5--5-|
 B|-------------------------------------------------|

   GTR III
c#|-----------------------3--------------3-----3--3-|
G#|-----------------------3--------------3-----3--3-|
 E|--7-----------7--7-----7-----7--7-----7-----7--7-|
 B|--5-----------5--5-----5-----5--5-----5-----5--5-|
F#|--3-----------3--3-----3-----3--3-----3-----3--3-|
 B|-------------------------------------------------|

   GTR III
c#|-------------------------------------------------|
G#|-------------------------------------------------|
 E|--7-----------7--7-----7-----7--7-----7-----7--7-|
 B|--7-----------7--7-----7-----7--7-----7-----7--7-|
F#|--5-----------5--5-----5-----5--5-----5-----5--5-|
 B|--5-----------5--5-----5-----5--5-----5-----5--5-|

   GTR III
c#|-------------------------------------------------|
G#|-------------------------------------------------|
 E|--7-----------7-----7--7--5-----5-----7-----7----|
 B|--5-----------5-----5--5--3-----3-----5-----5----|
F#|--3-----------3-----3--3--3-----3-----5-----5----|
 B|--------------------------3-----3-----5-----5----|

   GTR I,III
c#|-----------------------5--------------5-----5--5-|
G#|-----------------------5--------------5-----5--5-|
 E|--7-----------7--7-----7-----7--7-----7-----7--7-|
 B|--7-----------7--7-----7-----7--7-----7-----7--7-|
F#|--5-----------5--5-----5-----5--5-----5-----5--5-|
 B|-------------------------------------------------|

   GTR I,III
c#|-----------------------3--------------3-----3--3-|
G#|-----------------------3--------------3-----3--3-|
 E|--7-----------7--7-----7-----7--7-----7-----7--7-|
 B|--5-----------5--5-----5-----5--5-----5-----5--5-|
F#|--3-----------3--3-----3-----3--3-----3-----3--3-|
 B|-------------------------------------------------|

   GTR I,III
c#|-------------------------------------------------|
G#|-------------------------------------------------|
 E|-------------------------------------------------|
 B|-------------------------------------------------|
F#|--5-----5-----5-----5-----5-----5-----5-----5----|
 B|--5-----5-----5-----5-----5-----5-----5-----5----|
     .     .     .     .     .     .     .     .

   GTR I,III
c#|-------------------------------------------------|
G#|-------------------------------------------------|
 E|-------------------------------------------------|
 B|--5-----5-----5-----5----------------------------|
F#|--3-----3-----3-----3-----3-----0--0-------------|
 B|--------------------------3-----0--0-/15\--------|
     .     .     .     .     .     .  .

Chorus 2

   GTR I
c#|-------------------------------------------------|
G#|-------------------------------------------------|
 E|--7-----7-----7-----7----10----10----10----10----|
 B|--7-----7-----7-----7----10----10----10----10----|
F#|--5-----5-----5-----5-----8-----8-----8-----8----|
 B|-------------------------------------------------|
  |
  |GTR II
c#|-------------------------------------------------|
G#|--3-----3-----3-----3----------------------------|
 E|--2-----2-----2-----2----------------------------|
 B|--0-----0-----0-----0-----3-----3-----3-----3----|
F#|--0-----0-----0-----0-----3-----3-----3-----3----|
 B|--0-----0-----0-----0-----3-----3-----3-----3----|

   GTR I
c#|-------------------------------------------------|
G#|-------------------------------------------------|
 E|-12----12----12----12----12----12----12----12----|
 B|-12----12----12----12----12----12----12----12----|
F#|-10----10----10----10----10----10----10----10----|
 B|-------------------------------------------------|
  |
  |GTR II
c#|-------------------------------------------------|
G#|-------------------------------------------------|
 E|-------------------------------------------------|
 B|--5-----5-----5-----5-----5-----5-----5-----5----|
F#|--5-----5-----5-----5-----5-----5-----5-----5----|
 B|--5-----5-----5-----5-----5-----5-----5-----5----|

   GTR I
c#|-------------------------------------------------|
G#|-------------------------------------------------|
 E|--7-----7-----7-----7----10----10----10----10----|
 B|--7-----7-----7-----7----10----10----10----10----|
F#|--5-----5-----5-----5-----8-----8-----8-----8----|
 B|-------------------------------------------------|
  |
  |GTR II
c#|-------------------------------------------------|
G#|--3-----3-----3-----3----------------------------|
 E|--2-----2-----2-----2----------------------------|
 B|--0-----0-----0-----0-----3-----3-----3-----3----|
F#|--0-----0-----0-----0-----3-----3-----3-----3----|
 B|--0-----0-----0-----0-----3-----3-----3-----3----|

   GTR I
c#|-------------------------------------------------|
G#|-------------------------------------------------|
 E|-12----12----12----12----12----12----12----12----|
 B|-12----12----12----12----12----12----12----12----|
F#|-10----10----10----10----10----10----10----10----|
 B|-------------------------------------------------|
  |
  |GTR II
c#|-------------------------------------------------|
G#|-------------------------------------------------|
 E|-------------------------------------------------|
 B|--5-----5-----5-----5-----5-----5-----5-----5----|
F#|--5-----5-----5-----5-----5-----5-----5-----5----|
 B|--5-----5-----5-----5-----5-----5-----5-----5----|

   GTR I
c#|-------------------------------------------------|
G#|-------------------------------------------------|
 E|--7-----7-----7-----7-----9-----9-----9-----9----|
 B|--7-----7-----7-----7-----9-----9-----9-----9----|
F#|--5-----5-----5-----5-----7-----7-----7-----7----|
 B|-------------------------------------------------|
  |
  |GTR II
c#|-------------------------------------------------|
G#|--3-----3-----3-----3----------------------------|
 E|--2-----2-----2-----2----------------------------|
 B|--0-----0-----0-----0-----2-----2-----2-----2----|
F#|--0-----0-----0-----0-----2-----2-----2-----2----|
 B|--0-----0-----0-----0-----2-----2-----2-----2----|

   GTR I
c#|-------------------------------------------------|
G#|-------------------------------------------------|
 E|-10----10----10----10----12----12----12----12----|
 B|-10----10----10----10----12----12----12----12----|
F#|--8-----8-----8-----8----10----10----10----10----|
 B|-------------------------------------------------|
  |
  |GTR II
c#|-------------------------------------------------|
G#|-------------------------------------------------|
 E|-------------------------------------------------|
 B|--3-----3-----3-----3-----5-----5-----5-----5----|
F#|--3-----3-----3-----3-----5-----5-----5-----5----|
 B|--3-----3-----3-----3-----5-----5-----5-----5----|

   GTR I
c#|-------------------------------------------------|
G#|-------------------------------------------------|
 E|--7-----7-----7-----7----10----10----10----10----|
 B|--7-----7-----7-----7----10----10----10----10----|
F#|--5-----5-----5-----5-----8-----8-----8-----8----|
 B|-------------------------------------------------|
  |
  |GTR II
c#|-------------------------------------------------|
G#|--3-----3-----3-----3----------------------------|
 E|--2-----2-----2-----2----------------------------|
 B|--0-----0-----0-----0-----3-----3-----3-----3----|
F#|--0-----0-----0-----0-----3-----3-----3-----3----|
 B|--0-----0-----0-----0-----3-----3-----3-----3----|

   GTR I
c#|-------------------------------------------------|
G#|-------------------------------------------------|
 E|-12----12----12----12----12----12----12----12----|
 B|-12----12----12----12----12----12----12----12----|
F#|-10----10----10----10----10----10----10----10----|
 B|-------------------------------------------------|
  |
  |GTR II
c#|-------------------------------------------------|
G#|-------------------------------------------------|
 E|-------------------------------------------------|
 B|--5-----5-----5-----5-----5-----5-----5-----5----|
F#|--5-----5-----5-----5-----5-----5-----5-----5----|
 B|--5-----5-----5-----5-----5-----5-----5-----5----|

Outro

   GTR I
c#|-------------------------------------------------|
G#|-------------------------------------------------|
 E|-------------------------------------------------|
 B|-10---------/14----12----10---------/14----12----|
F#|-------12----------------------12----------------|
 B|-------------------------------------------------|
  |
  |GTR II
c#|-------------------------------------------------|
G#|--3-----3-----3-----3----------------------------|
 E|--2-----2-----2-----2----------------------------|
 B|--0-----0-----0-----0-----3-----3-----3-----3----|
F#|--0-----0-----0-----0-----3-----3-----3-----3----|
 B|--0-----0-----0-----0-----3-----3-----3-----3----|

   GTR I
c#|-------------------------------------------------|
G#|-------------------------------------------------|
 E|-------------------------------------------------|
 B|-10---------/14----12----10---------/14----12----|
F#|-------12----------------------12----------------|
 B|-------------------------------------------------|
  |
  |GTR II
c#|-------------------------------------------------|
G#|-------------------------------------------------|
 E|-------------------------------------------------|
 B|--5-----5-----5-----5-----5-----5-----------3----|
F#|--5-----5-----5-----5-----5-----5-----------3----|
 B|--5-----5-----5-----5-----5-----5-----------3----|

   GTR I
c#|-------------------------------------------------|
G#|-13---------/17----15----13---------/17----15----|
 E|-------14----------------------14----------------|
 B|-------------------------------------------------|
F#|-------------------------------------------------|
 B|-------------------------------------------------|
  |
  |GTR II
c#|-------------------------------------------------|
G#|--3-----3-----3-----3----------------------------|
 E|--2-----2-----2-----2----------------------------|
 B|--0-----0-----0-----0-----3-----3-----3-----3----|
F#|--0-----0-----0-----0-----3-----3-----3-----3----|
 B|--0-----0-----0-----0-----3-----3-----3-----3----|

   GTR I
c#|-------------------------------------------------|
G#|-13---------/17----15----13---------/17----15----|
 E|-------14----------------------14----------------|
 B|-------------------------------------------------|
F#|-------------------------------------------------|
 B|-------------------------------------------------|
  |
  |GTR II
c#|-------------------------------------------------|
G#|-------------------------------------------------|
 E|-------------------------------------------------|
 B|--5-----5-----5-----5-----5-----5-----------3----|
F#|--5-----5-----5-----5-----5-----5-----------3----|
 B|--5-----5-----5-----5-----5-----5-----------3----|

   GTR I
c#|-------------------------------------------------|
G#|-13---------/17----15----13---------/17----15----|
 E|-------14----------------------14----------------|
 B|-------------------------------------------------|
F#|-------------------------------------------------|
 B|-------------------------------------------------|
  |
  |GTR II
c#|-------------------------------------------------|
G#|--3-----3-----3-----3----------------------------|
 E|--2-----2-----2-----2----------------------------|
 B|--0-----0-----0-----0-----2-----2-----2-----2----|
F#|--0-----0-----0-----0-----2-----2-----2-----2----|
 B|--0-----0-----0-----0-----2-----2-----2-----2----|

   GTR I
c#|-------------------------------------------------|
G#|-13---------/17----15----13---------/17----15----|
 E|-------14----------------------14----------------|
 B|-------------------------------------------------|
F#|-------------------------------------------------|
 B|-------------------------------------------------|
  |
  |GTR II
c#|-------------------------------------------------|
G#|-------------------------------------------------|
 E|-------------------------------------------------|
 B|--3-----3-----3-----3-----5-----5-----5-----5----|
F#|--3-----3-----3-----3-----5-----5-----5-----5----|
 B|--3-----3-----3-----3-----5-----5-----5-----5----|

   GTR I
c#|-------------------------------------------------|
G#|-13---------/17----15----13---------/17----15----|
 E|-------14----------------------14----------------|
 B|-------------------------------------------------|
F#|-------------------------------------------------|
 B|-------------------------------------------------|
  |
  |GTR II
c#|-------------------------------------------------|
G#|--3-----3-----3-----3----------------------------|
 E|--2-----2-----2-----2----------------------------|
 B|--0-----0-----0-----0-----3-----3-----3-----3----|
F#|--0-----0-----0-----0-----3-----3-----3-----3----|
 B|--0-----0-----0-----0-----3-----3-----3-----3----|

   GTR I
c#|-------------------------------------------------|
G#|-13----------------------------------------------|
 E|-------------------------------------------------|
 B|-------------------------------------------------|
F#|-------------------------------------------------|
 B|-------------------------------------------------|
  |
  |GTR II
c#|-------------------------------------------------|
G#|-------------------------------------------------|
 E|-------------------------------------------------|
 B|--5----------------------------------------------|
F#|--5----------------------------------------------|
 B|--5----------------------------------------------|

   GTR I
c#|-------------------------------------------------|
G#|-13---------/17----15----13~---------------------|
 E|-------14----------------------------------------|
 B|-------------------------------------------------|
F#|-------------------------------------------------|
 B|-------------------------------------------------|

   GTR III
c#|-------------------------------------------------|
G#|-------------------------------------------------|
 E|-------------------------------------------------|
 B|-10---------/14----12----10---------/14----12----|
F#|-------12----------------------12----------------|
 B|-------------------------------------------------|

   GTR III
c#|-------------------------------------------------|
G#|-------------------------------------------------|
 E|-------------------------------------------------|
 B|-10---------/14----12----10---------/14----------|
F#|-------12----------------------12----------------|
 B|-------------------------------------------------|

   GTR III
c#|-------------------------------------------------|
G#|-------------------------------------------------|
 E|-------------------------------------------------|
 B|/14\---------------------------------------------|
F#|-------------------------------------------------|
 B|-------------------------------------------------|


| b  bend
| r  release bend
|trp triplet
|PH. pinch harmonic
|fbk feedback
| .  palm-mute
| /  slide up
| \  slide down
| h  hammer-on
| p  pull-off
| ~  vibrato
|(7) harmonic
| x  Mute note
===============================================================================

Tap to rate this tab
 
# A B C D E F G H I J K L M N O P Q R S T U V W X Y Z