Theory Of A Deadman - Invisible Man tab

Invisible Man
Theory of A Deadman
Theory of A Deadman (2002)

Words & Music by Tyler Connolly and Chad Kroeger

GTR I - Drop B Tuning "Tyler Connolly" (c#,G#,E,B,F#,B)
GTR II - Drop B Tuning "Dave Brenner" (c#,G#,E,B,F#,B)

   GTR I
c#|-------------------------------------------------|
G#|-------------------------------------------------|
 E|-------------------------------------------------|
 B|--x--2--2--2--2--2--2--2--x--5--5--5--5--5--5--5-|
F#|--x--2--2--2--2--2--2--2--x--5--5--5--5--5--5--5-|
 B|--x--2--2--2--2--2--2--2--x--5--5--5--5--5--5--5-|

   GTR I
c#|-------------------------------------------------|
G#|-------------------------------------------------|
 E|-------------------------------------------------|
 B|--x--2--2--2--2--2--2--2--x--5--5--5--7--7-----7-|
F#|--x--2--2--2--2--2--2--2--x--5--5--5--7--7-----7-|
 B|--x--2--2--2--2--2--2--2--x--5--5--5--7--7-----7-|
  |
  |GTR II
c#|-------------------------------------------------|
G#|-------------------------------------------------|
 E|-------------------------------------------------|
 B|--------------------------------------7--7-----7-|
F#|--------------------------------------7--7-----7-|
 B|--------------------------------------7--7-----7-|

Main Riff

   GTR I,II
c#|-------------------------------------------------|
G#|-----------------------5-----------5-------------|
 E|-----------------------4-----------4-------------|
 B|--5--6--5--2-----2--2--2-----2--2--2-----2--2--2-|
F#|--5--6--5--2-----2--2--------2--2--------2--2--2-|
 B|--5--6--5--2-----2--2--------2--2--------2--2--2-|

   GTR I,II
c#|-------------------------------------------------|
G#|-----------------------5-------------------------|
 E|-----------------------4-------------------------|
 B|--5--6--5--2-----2--2--2-----2--2--2--7--7-----7-|
F#|--5--6--5--2-----2--2--------2--2--2--7--7-----7-|
 B|--5--6--5--2-----2--2--------2--2--2--7--7-----7-|

   GTR I
c#|-------------------------------------------------|
G#|-------------------------------------------------|
 E|--------------------------------9-----9--9-------|
 B|---------------------------/12----12-------12-12~|
F#|-------------------------------------------------|
 B|-------------------------------------------------|
  |
  |GTR II
c#|-------------------------------------------------|
G#|-----------------------5-----------5-------------|
 E|-----------------------4-----------4-------------|
 B|--5--6--5--2-----2--2--2-----2--2--2-----2--2--2-|
F#|--5--6--5--2-----2--2--------2--2--------2--2--2-|
 B|--5--6--5--2-----2--2--------2--2--------2--2--2-|

   GTR I
c#|-------------------------------------------------|
G#|-------------------------------------------------|
 E|-----9-------------/9--7~------------------------|
 B|-------------------------------------------------|
F#|-------------------------------------------------|
 B|-------------------------------------------------|
  |
  |GTR II
c#|-------------------------------------------------|
G#|-----------------------3-------------------------|
 E|-----------------------2-------------------------|
 B|--5--6--5--2-----2--2--0-------------------------|
F#|--5--6--5--2-----2--2--0-------------------------|
 B|--5--6--5--2-----2--2--0-------------------------|

Verse

   GTR II
c#|-------------------------------------------------|
G#|-------------------------------------------------|
 E|-------------------------------------------------|
 B|-----------2-------------------------------------|
F#|-----------------2--2--2-----2--2--2-----2--2--2-|
 B|--5~----2--------2--2--2-----2--2--2-----2--2--2-|
           .        .  .  .     .  .  .     .  .  .

   GTR II
c#|-------------------------------------------------|
G#|-------------------------------------------------|
 E|-------------------------------------------------|
 B|-----------2-------------------------------------|
F#|-----------------2--2--2-----2--2--2-----2--2--2-|
 B|--5~----2--------2--2--2-----2--2--2-----2--2--2-|
           .        .  .  .     .  .  .     .  .  .

   GTR II
c#|-------------------------------------------------|
G#|-------------------------------------------------|
 E|-------------------------------------------------|
 B|-----------2-------------------------------------|
F#|-----------------2--2--2-----2--2--2-----2--2--2-|
 B|--5~----2--------2--2--2-----2--2--2-----2--2--2-|
           .        .  .  .     .  .  .     .  .  .

   GTR I
c#|-------------------------------------------------|
G#|-----------------------3-------------------------|
 E|-----------------------2-------------------------|
 B|-----------------------0-------------------------|
F#|-----------------------0-------------------------|
 B|-----------------------0-------------------------|
  |
  |GTR II
c#|-------------------------------------------------|
G#|-----------------------3-------------------------|
 E|-----------------------2-------------------------|
 B|-----------2-----------0-------------------------|
F#|-----------------2--2--0-------------------------|
 B|--5~----2--------2--2--0-------------------------|
           .        .  .                            

Chorus

   GTR I,II
c#|-------------------------------------------------|
G#|-------------------------------------------------|
 E|-------------------------------------------------|
 B|-----2--2--2--2--2--2--2-----5--5--5--5--5--5--5-|
F#|-----2--2--2--2--2--2--2-----5--5--5--5--5--5--5-|
 B|-----2--2--2--2--2--2--2-----5--5--5--5--5--5--5-|

   GTR I,II
c#|-------------------------------------------------|
G#|-------------------------------------------------|
 E|-------------------------------------------------|
 B|-----2--2--2--2--2--2--2-----5--5--5--7--7-----7-|
F#|-----2--2--2--2--2--2--2-----5--5--5--7--7-----7-|
 B|-----2--2--2--2--2--2--2-----5--5--5--7--7-----7-|

   GTR I,II
c#|-------------------------------------------------|
G#|-------------------------------------------------|
 E|-------------------------------------------------|
 B|-----2--2--2--2--2--2--2-----5--5--5--5--5--5--5-|
F#|-----2--2--2--2--2--2--2-----5--5--5--5--5--5--5-|
 B|-----2--2--2--2--2--2--2-----5--5--5--5--5--5--5-|

   GTR I,II
c#|-------------------------------------------------|
G#|-------------------------------------------------|
 E|-------------------------------------------------|
 B|-----2--2--2--2--2--2--2-----5--5--5--5--5--5--5-|
F#|-----2--2--2--2--2--2--2-----5--5--5--5--5--5--5-|
 B|-----2--2--2--2--2--2--2-----5--5--5--5--5--5--5-|

   GTR I,II
c#|-------------------------------------------------------------------------|
G#|-------------------------------------------------------------------------|
 E|-------------------------------------------------------------------------|
 B|--7--7--7--7--7--7--7--7--7--7--7--7--7--7-------------------------------|
F#|--7--7--7--7--7--7--7--7--7--7--7--7--7--7-------------------------------|
 B|--7--7--7--7--7--7--7--7--7--7--7--7--7--7-------------------------------|

Post Chorus

   GTR I,II
c#|-------------------------------------------------|
G#|-----------------------5-----------5-------------|
 E|-----------------------4-----------4-------------|
 B|--5--6--5--2-----2--2--2-----2--2--2-----2--2--2-|
F#|--5--6--5--2-----2--2--------2--2--------2--2--2-|
 B|--5--6--5--2-----2--2--------2--2--------2--2--2-|

   GTR I
c#|-------------------------------------------------|
G#|-------------------------------------------------|
 E|-------------------/9--7~------------------------|
 B|-------------------------------------------------|
F#|-------------------------------------------------|
 B|-------------------------------------------------|
  |
  |GTR II
c#|-------------------------------------------------|
G#|-----------------------3-------------------------|
 E|-----------------------2-------------------------|
 B|--5--6--5--2-----2--2--0-------------------------|
F#|--5--6--5--2-----2--2--0-------------------------|
 B|--5--6--5--2-----2--2--0-------------------------|

Verse   - 1x
Chorus  - 1x

Post Chorus 2

   GTR I,II
c#|-------------------------------------------------|
G#|-------------------------------------------------|
 E|-------------------------------------------------|
 B|--------------------------------------------5----|
F#|--2--2--------2--2--------2--2-----------2--5--0-|
 B|--2--2--------2--2--------2--2-----------2--5--0-|
     .  .        .  .        .  .           .     .

Interlude

   GTR I,II
c#|-------------------------------------------------|
G#|-------------------------------------------------|
 E|--5-----5--5--5--5--5--5--5--5--5--5--5----------|
 B|--5-----5--5--5--5--5--5--5--5--5--5--5-----5----|
F#|--3-----3--3--3--3--3--3--3--3--3--3--3--2--5--0-|
 B|-----------------------------------------2--5--0-|
                                            .     .

   GTR I,II
c#|-------------------------------------------------|
G#|--3-----3--3--3--3--3--3--3--3--3--3--3----------|
 E|--2-----2--2--2--2--2--2--2--2--2--2--2----------|
 B|--0-----0--0--0--0--0--0--0--0--0--0--0-----5----|
F#|--0-----0--0--0--0--0--0--0--0--0--0--0--2--5--0-|
 B|-----------------------------------------2--5--0-|
                                            .     .

   GTR I,II
c#|-------------------------------------------------|
G#|-------------------------------------------------|
 E|--5-----5--5--5--5--5--5--5--5--5--5--5----------|
 B|--5-----5--5--5--5--5--5--5--5--5--5--5-----5----|
F#|--3-----3--3--3--3--3--3--3--3--3--3--3--2--5--0-|
 B|-----------------------------------------2--5--0-|
                                            .     .

   GTR I
c#|-------------------------------------------------|
G#|-------------------------------------------------|
 E|-------------------------------------------------|
 B|-------------------------------------------------|
F#|-----------------------------------------Picksld-|
 B|-----------------------------------------Picksld-|
  |
  |GTR II
c#|-------------------------------------------------|
G#|--3-----3--3--3--3--3--3--3--3--3--3--3--3--3--3-|
 E|--2-----2--2--2--2--2--2--2--2--2--2--2--2--2--2-|
 B|--0-----0--0--0--0--0--0--0--0--0--0--0--0--0--0-|
F#|--0-----0--0--0--0--0--0--0--0--0--0--0--0--0--0-|
 B|-------------------------------------------------|
                                                   
Guitar Solo

   GTR I
c#|-------------------------------------------------|
G#|-------------------------------------------------|
 E|-------------------------------------------------|
 B|-------------------------------------------------|
F#|--5/----7b----r-----b-----r-----------7~---------|
 B|-------------------------------------------------|
  |
  |GTR II
c#|-------------------------------------------------|
G#|--------------5-----------5-----------5----------|
 E|--------------4-----------4-----------4----------|
 B|--------------2-----------2-----------2----------|
F#|--------------2-----------2-----------2----------|
 B|--5b---r5-----2-----------2-----------2----------|

   GTR I                                PH.
c#|-------------------------------------------------|
G#|-------------------------------------------------|
 E|-------------------------(5)---------------------|
 B|-------------------------------------------------|
F#|-10\----7~---------------------------------------|
 B|--------------------------------------2~---------|
  |
  |GTR II
c#|-------------------------------------------------|
G#|--------------5-----------5-----------5----------|
 E|--------------4-----------4-----------4----------|
 B|--------------2-----------2-----------2----------|
F#|--------------2-----------2-----------2----------|
 B|--5b---r5-----2-----------2-----------2----------|

   GTR I
c#|-------------------------------------------------|
G#|-------------------------------------------------|
 E|-------------------------------12----------------|
 B|----------------------------------14-14~---------|
F#|-------10-12--b--r--b--r-12-14-------------------|
 B|-12-14-------------------------------------------|
  |  .  .                    .  .     .
  |GTR II
c#|-------------------------------------------------|
G#|--------------5-----------5-----------5----------|
 E|--------------4-----------4-----------4----------|
 B|--------------2-----------2-----------2----------|
F#|--------------2-----------2-----------2----------|
 B|--5b---r5-----2-----------2-----------2----------|

   GTR I
c#|-------------------------------------------------|
G#|-------------------------------------------------|
 E|----------------------19b------------------------|
 B|----17----19b19p17-------------------------------|
F#|-19----19----------19----------------------------|
 B|-------------------------------------------------|
  |
  |GTR II
c#|-------------------------------------------------|
G#|-----------------------3-------------------------|
 E|-----------------------2-------------------------|
 B|-----------------5-----0-------------------------|
F#|-----------0--2--5--0--0-------------------------|
 B|--5b---r5--0--2--5--0--0-------------------------|
              .  .     .

Chorus 2

   GTR I,II
c#|-------------------------------------------------|
G#|-------------------------------------------------|
 E|-------------------------------------------------|
 B|-----2--2--2--2--2--2--2-----5--5--5--5--5--5--5-|
F#|-----2--2--2--2--2--2--2-----5--5--5--5--5--5--5-|
 B|-----2--2--2--2--2--2--2-----5--5--5--5--5--5--5-|

   GTR I,II
c#|-------------------------------------------------|
G#|-------------------------------------------------|
 E|-------------------------------------------------|
 B|-----2--2--2--2--2--2--2-----5--5--5--7--7-----7-|
F#|-----2--2--2--2--2--2--2-----5--5--5--7--7-----7-|
 B|-----2--2--2--2--2--2--2-----5--5--5--7--7-----7-|

   GTR I,II
c#|-------------------------------------------------|
G#|-------------------------------------------------|
 E|-------------------------------------------------|
 B|-----2--2--2--2--2--2--2-----5--5--5--5--5--5--5-|
F#|-----2--2--2--2--2--2--2-----5--5--5--5--5--5--5-|
 B|-----2--2--2--2--2--2--2-----5--5--5--5--5--5--5-|

   GTR I,II
c#|-------------------------------------------------|
G#|-------------------------------------------------|
 E|-------------------------------------------------|
 B|-----2--2--2--2--2--2--2-----5--5--5--5--5--5----|
F#|-----2--2--2--2--2--2--2-----5--5--5--5--5--5----|
 B|-----2--2--2--2--2--2--2-----5--5--5--5--5--5----|

   GTR I,II
c#|----------------------------------------|
G#|----------------------------------------|
 E|----------------------------------------|
 B|-----5--------5--------8--7--5--7--5--8-|
F#|-----5--------5--------8--7--5--7--5--8-|
 B|-----5--------5--------8--7--5--7--5--8-|

Outro

   GTR I
c#|-------------------------------------------------|
G#|-------------------------------------------------|
 E|-------------------------12----12-12-12-12-12-12-|
 B|-14----14-14-14-14-14-14-------------------------|
F#|-------------------------------------------------|
 B|-------------------------------------------------|
  |
  |GTR II
c#|-------------------------------------------------|
G#|-----------5--5--5--5--5-----------8--8--8--8--8-|
 E|-----------4--4--4--4--4-----------7--7--7--7--7-|
 B|--2-----2--2--2--2--2--2--5-----5--5--5--5--5--5-|
F#|--2-----2--2--2--2--2--2--5-----5--5--5--5--5--5-|
 B|--2-----2--2--2--2--2--2--5-----5--5--5--5--5--5-|

   GTR I
c#|-------------------------------------------------|
G#|-------------------------------------------------|
 E|-------------------------------------------------|
 B|-14----14-14-14-14-14-14-12----12-12-12-12-12-12-|
F#|-------------------------------------------------|
 B|-------------------------------------------------|
  |
  |GTR II
c#|-------------------------------------------------|
G#|-----------5--5--5--5--5-----------8--8--8--8--8-|
 E|-----------4--4--4--4--4-----------7--7--7--7--7-|
 B|--2-----2--2--2--2--2--2--5-----5--5--5--5--5--5-|
F#|--2-----2--2--2--2--2--2--5-----5--5--5--5--5--5-|
 B|--2-----2--2--2--2--2--2--5-----5--5--5--5--5--5-|

   GTR I
c#|-------------------------------------------------|
G#|-------------------------------------------------|
 E|-------------------------12----12-12-12-12-12-12-|
 B|-14----14-14-14-14-14-14-------------------------|
F#|-------------------------------------------------|
 B|-------------------------------------------------|
  |
  |GTR II
c#|-------------------------------------------------|
G#|-----------5--5--5--5--5-----------8--8--8--8--8-|
 E|-----------4--4--4--4--4-----------7--7--7--7--7-|
 B|--2-----2--2--2--2--2--2--5-----5--5--5--5--5--5-|
F#|--2-----2--2--2--2--2--2--5-----5--5--5--5--5--5-|
 B|--2-----2--2--2--2--2--2--5-----5--5--5--5--5--5-|

   GTR I
c#|-------------------------------------------------|
G#|-------------------------------------------------|
 E|-------------------------------------------------|
 B|-14----14-14-14-14-14-14-12----12-12-12-12-12-12-|
F#|-------------------------------------------------|
 B|-------------------------------------------------|
  |
  |GTR II
c#|-------------------------------------------------|
G#|-----------5--5--5--5--5-----------8--8--8--8--8-|
 E|-----------4--4--4--4--4-----------7--7--7--7--7-|
 B|--2-----2--2--2--2--2--2--5-----5--5--5--5--5--5-|
F#|--2-----2--2--2--2--2--2--5-----5--5--5--5--5--5-|
 B|--2-----2--2--2--2--2--2--5-----5--5--5--5--5--5-|

   GTR I
c#|-------------------------------------------------|
G#|-------------------------------------------------|
 E|-------------------------------------------------|
 B|-14~---------------------------------------------|
F#|-------------------------------------------------|
 B|-------------------------------------------------|
  |
  |GTR II
c#|-------------------------------------------------|
G#|-------------------------------------------------|
 E|-------------------------------------------------|
 B|--7--7--7--7--7--7--7--7--7--7--7--7--7--7--7--7-|
F#|--7--7--7--7--7--7--7--7--7--7--7--7--7--7--7--7-|
 B|--7--7--7--7--7--7--7--7--7--7--7--7--7--7--7--7-|

   GTR I
c#|-------------------------------------------------|
G#|-------------------------------------------------|
 E|-------------------------12-14-12----------------|
 B|----------------------------------14\------------|
F#|-------------------------------------------------|
 B|-------------------------------------------------|
  |
  |GTR II
c#|-------------------------------------------------|
G#|-------------------------------------------------|
 E|-------------------------------------------------|
 B|--7--7--7--7--7--7--7--7--5--7--5--2-------------|
F#|--7--7--7--7--7--7--7--7--5--7--5--2-------------|
 B|--7--7--7--7--7--7--7--7--5--7--5--2-------------|



| b  bend
| r  release bend
|trp triplet
|PH. pinch harmonic
|fbk feedback
| .  palm-mute
| /  slide up
| \  slide down
| h  hammer-on
| p  pull-off
| ~  vibrato
|(7) harmonic
| x  Mute note
===============================================================================

Tap to rate this tab
 
# A B C D E F G H I J K L M N O P Q R S T U V W X Y Z