Song name
# A B C D E F G H I J K L M N O P Q R S T U V W X Y Z

Theory Of A Deadman - Love Is Hell chords

Highlighted       Show chord diagrams
Its a fairly simple song that keeps consistent chord progression throughout most
of its entirety. Have fun with it.


Song: Love is Hell
Artist: Theory of a Deadman
Album: The Truth Is...

Tuning: 1/2 step down


Main Chord Progression and Chorus

        Em        G        A
---------0--------3--------0-----------------------|
---------0--------3--------2-----------------------|
---------0--------0--------2-----------------------|
---------2--------0--------2--------2--------------|
---------2--------X--------0--------0--------------|
---------0--------3--------X-----------3-----------|


Bridge


        Em        G        A        C
---------0--------3--------0--------0---------------|
---------0--------3--------2--------1---------------|
---------0--------0--------2--------0---------------|
---------2--------0--------2--------2---------------|
---------2--------X--------0--------3---------------|
---------0--------3--------X--------0---------------|
Tap to rate this tab
# A B C D E F G H I J K L M N O P Q R S T U V W X Y Z