Song name
# A B C D E F G H I J K L M N O P Q R S T U V W X Y Z

Theory Of A Deadman - Does It Really Matter tab

Does It Really Matter:
(Standard Tuning)

Verse 1 :  Bm G D  A    (4X)

I know these are the chords used but not sure about the arpeggio I have listed below for 
the verse. It is pretty close though.

|-----------------------------------------------------------|
|---------3-2-2---------3-2--2--------3-2--2---------3-2--2-|
|-----4------4-------4------4-------4-----4-------4------4--|
|---4---4----------4---4--------0-4--4----------4--4--------|
|-2-------------------------------------------0-------------|
|----------------3------------------------------------------|


Pre-chorus 1:   G    (1X)

|-------------------------------|
|-------------------------------|
|-------------------------------|
|-5-5-55-55-5555-5-5-55-55-XXXX-|
|-5-5-55-55-5555-5-5-55-55-XXXX-|
|-3-3-33-33-3333-3-3-33-33-XXXX-|

Chorus 1:  D  A  Bm  G   (1X)

|------------------------------------------------------------|
|-3-3-33-33-3333---------------------------------------------|
|-2-2-22-22-2222-2-2-22-22-2222-4-4-44-2-2-22----------------|
|-0-0-00-00-0000-2-2-22-22-2222-4-4-44-2-2-22-5-5-55-55------|
|----------------0-0-00-00-0000-2-2-22-0-0-00-5-5-55-55-XXXX-|
|---------------------------------------------3-3-33-33-XXXX-|

|-------------------------------------|
|-3-3-33-33-3333----------------------|
|-2-2-22-22-2222-2-2-22-22-2222-4-2---|
|-0-0-00-00-0000-2-2-22-22-2222-4-2-5-|
|----------------0-0-00-00-0000-2-0-5-|
|-----------------------------------3-|

Verse 2:   Bm G D  A    (4X)

|-----------------------------------------------------------|
|---------3-2-2---------3-2--2--------3-2--2---------3-2--2-|
|-----4------4-------4------4-------4-----4-------4------4--|
|---4---4----------4---4--------0-4--4----------4--4--------|
|-2-------------------------------------------0-------------|
|----------------3------------------------------------------|


Pre-chorus 1:   G    (1X)

|-------------------------------|
|-------------------------------|
|-------------------------------|
|-5-5-55-55-5555-5-5-55-55-XXXX-|
|-5-5-55-55-5555-5-5-55-55-XXXX-|
|-3-3-33-33-3333-3-3-33-33-XXXX-|

Chorus 2:   D  A  Bm  G   (2X)

|------------------------------------------------------------|
|-3-3-33-33-3333---------------------------------------------|
|-2-2-22-22-2222-2-2-22-22-2222-4-4-44-2-2-22----------------|
|-0-0-00-00-0000-2-2-22-22-2222-4-4-44-2-2-22-5-5-55-55------|
|----------------0-0-00-00-0000-2-2-22-0-0-00-5-5-55-55-XXXX-|
|---------------------------------------------3-3-33-33-XXXX-|

Solo:

e|-------------------------------------------------|
B|-77-66-77-99-77-66-77-99-77-66-77-99-77-66-7p6/4-|
G|-------------------------------------------------|
D|-------------------------------------------------|
A|-------------------------------------------------|
E|-------------------------------------------------|

e|----------------------------------------------|
B|-77-66-77-99-77-66-77-99-9/11-9-7-7-------7h9-|
G|----------------------------------------------|
D|----------------------------------------------|
A|----------------------------------------------|
E|----------------------------------------------|

Verse 3:   Bm G D  A    (2X)

|-----------------------------------------------------------|
|---------3-2-2---------3-2--2--------3-2--2---------3-2--2-|
|-----4------4-------4------4-------4-----4-------4------4--|
|---4---4----------4---4--------0-4--4----------4--4--------|
|-2-------------------------------------------0-------------|
|----------------3------------------------------------------|

Second part of Verse 3 is the chords from chorus, played lightly. (1X)


Chorus/Outro 3:   D  A  Bm  G   (4X)


|------------------------------------------------------------|
|-3-3-33-33-3333---------------------------------------------|
|-2-2-22-22-2222-2-2-22-22-2222-4-4-44-2-2-22----------------|
|-0-0-00-00-0000-2-2-22-22-2222-4-4-44-2-2-22-5-5-55-55------|
|----------------0-0-00-00-0000-2-2-22-0-0-00-5-5-55-55-XXXX-|
|---------------------------------------------3-3-33-33-XXXX-|


Thank you and please give me feedback :]
Tap to rate this tab
# A B C D E F G H I J K L M N O P Q R S T U V W X Y Z