Song name
# A B C D E F G H I J K L M N O P Q R S T U V W X Y Z

Theory Of A Deadman - The Bitch Came Back tab

I dont have the bridge/solo yet. Coming soon.

Intro/Verse/Chorus
e|---------------------------------------------------------------------------|
B|---------------------------------------------------------------------------|
G|---------------------------------------------------------------------------|
D|-11--9--7--6---------------------------------------------------------------| (x2)
A|-11--9--7--6---------------------------------------------------------------|
E|-9---7--5--4---------------------------------------------------------------|

e|---------------------------------------------------------------------------|
B|---------------------------------------------------------------------------|
G|---------------------------------------------------------------------------|
D|-11--9--7--6-4-------------------------------------------------------------| (x2)
A|-11--9--7--6-4-------------------------------------------------------------|
E|-9---7--5--4-2-------------------------------------------------------------|



************************************

| /   slide up
| \   slide down
| h   hammer-on
| p   pull-off
| ~   vibrato
| +   harmonic
| x   Mute note
| b   Bend
| pb  Pre-bend
| br  Bend release
| pbr Pre-bend release
| brb Bend release bend

************************************
Tap to rate this tab
# A B C D E F G H I J K L M N O P Q R S T U V W X Y Z