Song name
# A B C D E F G H I J K L M N O P Q R S T U V W X Y Z

Theory Of A Deadman - Not Meant To Be tab

TITLE : NOT MEANT TO BE
ARTIST: THEORY OF A DEADMAN
ALBUM : SCARS & SOUVENIRS
TABED BY : Uknown
TUNING: FULL STEP DOWN


____________________________________________________________________________


INTRO:
e:|-------------------|
B:|-------------------|
G:|---4---------------|
D:|---4---7---5---5---|  x2
A:|---2---7---5---5---|
E:|-------5---3---3---|

__________________LEAD PART___________________
|e:|------------------------------------------|
|B:|------------------------------------------|
|G:|-----7-6------6-4------7-6-----6-4--------|
|D:|-/9-------/7-------/9------/7-------------|
|A:|------------------------------------------|
|E:|------------------------------------------|
|                                             |
|e:|------------------------------------------|
|B:|----7-5----5-3--3/5-----------------------|
|G:|----7-6----6-4--4/6-----------------------|
|D:|-/9-----/7--------------------------------|
|A:|------------------------------------------|
|E:|------------------------------------------|
|_____________________________________________|


VERSE:
     |   PM    |      |   PM    |      |   PM    |      |   PM    |      |
e:|--|---------|------|---------|------|---------|------|---------|------|-|
B:|--|---------|------|---------|------|---------|------|---------|------|-|
G:|--|---------|-4~x4-|---------|------|---------|------|---------|------|-|
D:|--|-4-4-4-4-|-4~x4-|---------|-7~x7-|---------|-5~x5-|---------|-5~x5-|-|
A:|--|-2-2-2-2-|-2~x2-|-7-7-7-7-|-7~x7-|-5-5-5-5-|-5~x5-|-5-5-5-5-|-5~x5-|-|
E:|--|---------|------|-5-5-5-5-|-5~x5-|-3-3-3-3-|-3~x3-|-3-3-3-3-|-3~x3-|-|

PRE-CHORUS:
e:|-------------------|
B:|-------------------|
G:|-------------------|
D:|---2---2---5---5---|  x1
A:|---2---2---5---5---|
E:|---0---0---3---3---|
  |____PALM MUTED_____|


CHORUS:
e:|-------------------|
B:|-------------------|
G:|---7---------------|
D:|---7---7---2---5---|  x2
A:|---5---7---2---5---|
E:|-------5---0---3---|

INTERLUDE (INTRO):
e:|-------------------|
B:|-------------------|
G:|---4---------------|
D:|---4---7---5---5---|  x2
A:|---2---7---5---5---|
E:|-------5---3---3---|
 
__________________LEAD PART___________________
|     SAME AS LEAD PART AT THE BEGINNING 
EXCEPT YOU PLAY THE HARMONY PART THE WHOLE TIME!
|_____________________________________________|


VERSE:
     |   PM    |      |   PM    |      |   PM    |      |   PM    |      |
e:|--|---------|------|---------|------|---------|------|---------|------|
B:|--|---------|------|---------|------|---------|------|---------|------|
G:|--|---------|-4~x4-|---------|------|---------|------|---------|------|
D:|--|-4-4-4-4-|-4~x4-|---------|-7~x7-|---------|-5~x5-|---------|-5~x5-|
A:|--|-2-2-2-2-|-2~x2-|-7-7-7-7-|-7~x7-|-5-5-5-5-|-5~x5-|-5-5-5-5-|-5~x5-|
E:|--|---------|------|-5-5-5-5-|-5~x5-|-3-3-3-3-|-3~x3-|-3-3-3-3-|-3~x3-|


PRE-CHORUS:
e:|-------------------|
B:|-------------------|
G:|-------------------|
D:|---2---2---5---5---|  x1
A:|---2---2---5---5---|
E:|---0---0---3---3---|
  |____PALM MUTED_____|


CHORUS:
e:|-------------------|
B:|-------------------|
G:|---7---------------|
D:|---7---7---2---5---|  x2
A:|---5---7---2---5---|
E:|-------5---0---3---|


BRIDGE:
e:|-------------------|
B:|-------------------|
G:|-------------------|
D:|---7---2---7---5---|  x1
A:|---7---2---7---5---|
E:|---5---0---5---3---|


CHORUS:
e:|-------------|-----|
B:|-------------|-----|
G:|---7---------|-----|
D:|---7---7---2-|-5---|  x1
A:|---5---7---2-|-5---|
E:|-------5---0-|-3---|
     CLEAN      | DISTORTED+PALM MUTED 

e:|-------------------|
B:|-------------------|
G:|---7---------------|
D:|---7---7---2---5---|  x2
A:|---5---7---2---5---|
E:|-------5---0---3---|

_____________________________________________________________________________
LYRICS:

It's never enough to say I'm sorry
It's never enough to say I care
But I'm caught between what you wanted from me
And knowing that if I give that to you
I might just disappear

Nobody wins when everyone's losing

It's like one step forward and two steps back
No matter what I do you're always mad
And I, I can't change your mind
I know it's like trying to turn around on a one way street
I can't give you what you want
And it's killing me
And I, I'm starting to see
Maybe we're not meant to be

It's never enough to say I love you
No, it's never enough to say I try
It's hard to believe
That's theres no way out for you and me
And it seems to be the story of our lives

Nobody wins when everyone's losing

There's still time to turn this around
You could be building this up instead of tearing it down
But I keep thinking
Maybe it's too late

It's like one step forward and two steps back
No matter what I do you're always mad
And I, I can't change your mind
I know it's like trying to turn around on a one way street
I can't give you what you want
And it's killing me
And I, I'm starting to see
Maybe we're not meant to be
It's like one step forward and two steps back
No matter what I do you're always mad
And I, baby I'm sorry to see
Maybe we're not meant to be 
Tap to rate this tab
 
# A B C D E F G H I J K L M N O P Q R S T U V W X Y Z