Song name
# A B C D E F G H I J K L M N O P Q R S T U V W X Y Z

Theory Of A Deadman - Bitch Came Back tab

Bitch Came Back
Theory of a Deadman
The Truth Is... (2011)

Words & Music by Tyler Connolly, Dean Back, Dave Brenner, and Kara DioGuardi

GTR I  Drop C# Tuning "Tyler Connolly" (d#,A#,F#,C#,G#,C#)
GTR II  Drop C# Tuning "Dave Brenner" (d#,A#,F#,C#,G#,C#)

Intro

   GTR II
d#|-------------------------------------|-------------------------------------|
A#|-12----------------10----------------|--8-----------------7----------------|
F#|-12----------------10----------------|--8-----------------7----------------|
C#|-12----------------10----------------|--8-----------------7----------------|
G#|-10-----------------8----------------|--6-----------------5----------------|
C#|-------------------------------------|-------------------------------------|

   GTR II
d#|-------------------------------------|-------------------------------------|
A#|-12----------------10----------------|--8-----------------7----------------|
F#|-12----------------10----------------|--8-----------------7----------------|
C#|-12----------------10----------------|--8-----------------7----------------|
G#|-10-----------------8----------------|--6-----------------5----------------|
C#|-------------------------------------|-------------------------------------|

   GTR II
d#|-------------------------------------|-------------------------------------|
A#|-12----------------10----------------|--8-----------------7----------------|
F#|-12----------------10----------------|--8-----------------7----------------|
C#|-12----------------10----------------|--8-----------------7----------------|
G#|-10-----------------8----------------|--6-----------------5----------------|
C#|-------------------------------------|-------------------------------------|

   GTR I
d#|-------------------------------------|-------------------------------------|
A#|-------------------------------------|-------------------------------------|
F#|-------------------------------------|--------------------7--------7-------|
C#|-------------------------------------|--------------------7--------7-------|
G#|-------------------------------------|--------------------5--------5-------|
C#|-------------------------------------|-------------------------------------|
  |
  |GTR II
d#|-------------------------------------|-------------------------------------|
A#|--5----------------------------------|--5----------------------------------|
F#|--5----------------------------------|--5-----------------7--------7-------|
C#|--5----------------------------------|--5-----------------7--------7-------|
G#|--3----------------------------------|--3-----------------5--------5-------|
C#|-------------------------------------|-------------------------------------|

Main Riff

   GTR I
d#|-------------------------------------|-------------------------------------|
A#|-------------------------------------|-------------------------------------|
F#|-------------------------------------|-------------------------------------|
C#|--5--------5-----5--3--------3-----3-|--1--------1-----1--0--------0-----0-|
G#|--5--------5-----5--3--------3-----3-|--1--------1-----1--0--------0-----0-|
C#|--5--------5-----5--3--------3-----3-|--1--------1-----1--0--------0-----0-|
  |
  |GTR II
d#|-------------------------------------|-------------------------------------|
A#|-------------------------------------|-------------------------------------|
F#|-12-------12----12-10-------10----10-|--8--------8-----8--7--------7-----7-|
C#|--x--------x-----x--x--------x-----x-|--x--------x-----x--x--------x-----x-|
G#|-10-------10----10--8--------8-----8-|--6--------6-----6--5--------5-----5-|
C#|-------------------------------------|-------------------------------------|

   GTR I
d#|-------------------------------------|-------------------------------------|
A#|-------------------------------------|-------------------------------------|
F#|--5--------5-----5--5--------5-----5-|--5--------5-----5--7-----7--7-----7-|
C#|--5--------5-----5--5--------5-----5-|--5--------5-----5--7-----7--7-----7-|
G#|--3--------3-----3--3--------3-----3-|--3--------3-----3--5-----5--5-----5-|
C#|-------------------------------------|-------------------------------------|
  |
  |GTR II
d#|-------------------------------------|-------------------------------------|
A#|-------------------------------------|-------------------------------------|
F#|--5--------5-----5--5--------5-----5-|--5--------5-----5--7-----7--7-----7-|
C#|--x--------x-----x--x--------x-----x-|--x--------x-----x--x-----x--x-----x-|
G#|--3--------3-----3--3--------3-----3-|--3--------3-----3--5-----5--5-----5-|
C#|-------------------------------------|-------------------------------------|

Verse 1

   GTR I,II
d#|-------------------|-------------------|-------------------|-------------------|
A#|-------------------|-------------------|-------------------|-------------------|
F#|-------------------|-------------------|-------------------|-------------------|
C#|-------------------|-------------------|-------------------|-------------------|
G#|-------------------|-------------------|-------------------|-------------------|
C#|-------------------|-------------------|-------------------|-------------------|

   GTR I,II
d#|-------------------|-------------------|-------------------|-------------------|
A#|-------------------|-------------------|-------------------|-------------------|
F#|-------------------|-------------------|-------------------|-------------------|
C#|-------------------|-------------------|-------------------|-------------------|
G#|-------------------|-------------------|-------------------|-------------------|
C#|-------------------|-------------------|-------------------|-------------------|

Verse 2

   GTR II
d#|-------------------------------------|-------------------------------------|
A#|-12-------12----12-10-------10----10-|--8--------8-----8--7--------7-----7-|
F#|-12-------12----12-10-------10----10-|--8--------8-----8--7--------7-----7-|
C#|-12-------12----12-10-------10----10-|--8--------8-----8--7--------7-----7-|
G#|-10-------10----10--8--------8-----8-|--6--------6-----6--5--------5-----5-|
C#|-------------------------------------|-------------------------------------|

   GTR II
d#|-------------------------------------|-------------------------------------|
A#|-12-------12----12-10-------10----10-|--8--------8-----8--7--------7-----7-|
F#|-12-------12----12-10-------10----10-|--8--------8-----8--7--------7-----7-|
C#|-12-------12----12-10-------10----10-|--8--------8-----8--7--------7-----7-|
G#|-10-------10----10--8--------8-----8-|--6--------6-----6--5--------5-----5-|
C#|-------------------------------------|-------------------------------------|

   GTR II
d#|-------------------------------------|-------------------------------------|
A#|-12-------12----12-10-------10----10-|--8--------8-----8--7--------7-----7-|
F#|-12-------12----12-10-------10----10-|--8--------8-----8--7--------7-----7-|
C#|-12-------12----12-10-------10----10-|--8--------8-----8--7--------7-----7-|
G#|-10-------10----10--8--------8-----8-|--6--------6-----6--5--------5-----5-|
C#|-------------------------------------|-------------------------------------|

   GTR I,II
d#|-------------------------------------|-------------------------------------|
A#|-------------------------------------|-------------------------------------|
F#|--5-----5--5-----5--5-----5--5-----5-|--5-----5--5-----5--7--7--7--7--7--7-|
C#|--5-----5--5-----5--5-----5--5-----5-|--5-----5--5-----5--7--7--7--7--7--7-|
G#|--3-----3--3-----3--3-----3--3-----3-|--3-----3--3-----3--5--5--5--5--5--5-|
C#|-------------------------------------|-------------------------------------|

Chorus

   GTR I,II
d#|-------------------------------------|-------------------------------------|
A#|-------------------------------------|-------------------------------------|
F#|-------------------------------------|-------------------------------------|
C#|--5--------5--------3--------3-------|--1--------1--------0--------0-------|
G#|--5--------5--------3--------3-------|--1--------1--------0--------0-------|
C#|--5--------5--------3--------3-------|--1--------1--------0--------0-------|

   GTR I,II
d#|-------------------------------------|-------------------------------------|
A#|-------------------------------------|-------------------------------------|
F#|-------------------------------------|-------------------------------------|
C#|--5--------5--------3--------3-------|--1--------1--------0--------0-------|
G#|--5--------5--------3--------3-------|--1--------1--------0--------0-------|
C#|--5--------5--------3--------3-------|--1--------1--------0--------0-------|

   GTR I
d#|-------------------------------------|-------------------------------------|
A#|-------------------------------------|-------------------------------------|
F#|-------------------------------------|-------------------------------------|
C#|--5--------5--------3--------3-------|--1--------1--------0--------0-------|
G#|--5--------5--------3--------3-------|--1--------1--------0--------0-------|
C#|--5--------5--------3--------3-------|--1--------1--------0--------0-------|
  |
  |GTR II
d#|-------------------------------------|-------------------------------------|
A#|-------------------------------------|-------------------------------------|
F#|-------------------------------------|-------------------------------------|
C#|-------------------------------------|-------------------------------------|
G#|-10~----------------8~---------------|--6~----------------5~---------------|
C#|-------------------------------------|-------------------------------------|

   GTR I
d#|-------------------------------------|-------------------------------------|
A#|-------------------------------------|-------------------------------------|
F#|--5--------5--------5--------5-------|--5--------5--------7--------7-------|
C#|--5--------5--------5--------5-------|--5--------5--------7--------7-------|
G#|--3--------3--------3--------3-------|--3--------3--------5--------5-------|
C#|-------------------------------------|-------------------------------------|
  |
  |GTR II
d#|-------------------------------------|-------------------------------------|
A#|-------------------------------------|-------------------------------------|
F#|-------------------------------------|-------------------------------------|
C#|-------------------------------------|-------------------------------------|
G#|--3~----------------3~---------------|--3~----------------5~---------------|
C#|-------------------------------------|-------------------------------------|

Post Chorus

   GTR I
d#|-------------------------------------|-------------------------------------|
A#|-------------------------------------|-------------------------------------|
F#|-------------------------------------|-------------------------------------|
C#|-------------------------------------|--------------------3--------3-----4-|
G#|-------------------------------------|--------------------3--------3-----4-|
C#|-------------------------------------|--------------------3--------3-----4-|
  |
  |GTR II
d#|-------------------------------------|-------------------------------------|
A#|-------------------------------------|-------------------------------------|
F#|-------------------------------------|-------------------------------------|
C#|-------------------------------------|--------------------3--------3-----4-|
G#|-------------------------------------|--------------------3--------3-----4-|
C#|--5--------5-----3--5----b8-r5-----3-|--5----b8-r5--------3--------3-----4-|

Verse 2

Verse 3

   GTR I
d#|-------------------------------------|-------------------------------------|
A#|-------------------------------------|-------------------------------------|
F#|-------------------------------------|-------------------------------------|
C#|-12-12-12-12-12-12-10-10-10-10-10-10-|--8--8--8--8--8--8--7--7--7--7--7--7-|
G#|-10-10-10-10-10-10--8--8--8--8--8--8-|--6--6--6--6--6--6--5--5--5--5--5--5-|
C#|-------------------------------------|-------------------------------------|
  |  .  .  .  .  .  .  .  .  .  .  .  .    .  .  .  .  .  .  .  .  .  .  .  .
  |GTR II
d#|-------------------------------------|-------------------------------------|
A#|-12-------12----12-10-------10----10-|--8--------8-----8--7--------7-----7-|
F#|-12-------12----12-10-------10----10-|--8--------8-----8--7--------7-----7-|
C#|-12-------12----12-10-------10----10-|--8--------8-----8--7--------7-----7-|
G#|-10-------10----10--8--------8-----8-|--6--------6-----6--5--------5-----5-|
C#|-------------------------------------|-------------------------------------|

   GTR I
d#|-------------------------------------|-------------------------------------|
A#|-------------------------------------|-------------------------------------|
F#|-------------------------------------|-------------------------------------|
C#|-12-12-12-12-12-12-10-10-10-10-10-10-|--8--8--8--8--8--8--7--7--7--7--7--7-|
G#|-10-10-10-10-10-10--8--8--8--8--8--8-|--6--6--6--6--6--6--5--5--5--5--5--5-|
C#|-------------------------------------|-------------------------------------|
  |  .  .  .  .  .  .  .  .  .  .  .  .    .  .  .  .  .  .  .  .  .  .  .  .
  |GTR II
d#|-------------------------------------|-------------------------------------|
A#|-12-------12----12-10-------10----10-|--8--------8-----8--7--------7-----7-|
F#|-12-------12----12-10-------10----10-|--8--------8-----8--7--------7-----7-|
C#|-12-------12----12-10-------10----10-|--8--------8-----8--7--------7-----7-|
G#|-10-------10----10--8--------8-----8-|--6--------6-----6--5--------5-----5-|
C#|-------------------------------------|-------------------------------------|

   GTR I
d#|-------------------------------------|-------------------------------------|
A#|-------------------------------------|-------------------------------------|
F#|-------------------------------------|-------------------------------------|
C#|-12-12-12-12-12-12-10-10-10-10-10-10-|--8--8--8--8--8--8--7--7--7--7--7--7-|
G#|-10-10-10-10-10-10--8--8--8--8--8--8-|--6--6--6--6--6--6--5--5--5--5--5--5-|
C#|-------------------------------------|-------------------------------------|
  |  .  .  .  .  .  .  .  .  .  .  .  .    .  .  .  .  .  .  .  .  .  .  .  .
  |GTR II
d#|-------------------------------------|-------------------------------------|
A#|-12-------12----12-10-------10----10-|--8--------8-----8--7--------7-----7-|
F#|-12-------12----12-10-------10----10-|--8--------8-----8--7--------7-----7-|
C#|-12-------12----12-10-------10----10-|--8--------8-----8--7--------7-----7-|
G#|-10-------10----10--8--------8-----8-|--6--------6-----6--5--------5-----5-|
C#|-------------------------------------|-------------------------------------|

   GTR I,II
d#|-------------------------------------|-------------------------------------|
A#|-------------------------------------|-------------------------------------|
F#|--5-----5--5-----5--5-----5--5-----5-|--5-----5--5-----5--7--7--7--7--7--7-|
C#|--5-----5--5-----5--5-----5--5-----5-|--5-----5--5-----5--7--7--7--7--7--7-|
G#|--3-----3--3-----3--3-----3--3-----3-|--3-----3--3-----3--5--5--5--5--5--5-|
C#|-------------------------------------|-------------------------------------|

Chorus

Bridge

   GTR I,II
d#|-------------------------------------|-------------------------------------|
A#|-------------------------------------|-------------------------------------|
F#|-------------------------------------|-------------------------------------|
C#|--1-----1--1-----1--1-----1--1-----1-|--3-----3--3-----3--3-----3--3-----3-|
G#|--1-----1--1-----1--1-----1--1-----1-|--3-----3--3-----3--3-----3--3-----3-|
C#|--1-----1--1-----1--1-----1--1-----1-|--3-----3--3-----3--3-----3--3-----3-|

   GTR I,II
d#|-------------------------------------|-------------------------------------|
A#|-------------------------------------|-------------------------------------|
F#|--5-----5--5-----5--5-----5--5-----5-|--5-----5--5-----5--3-----3--3-----3-|
C#|--5-----5--5-----5--5-----5--5-----5-|--5-----5--5-----5--3-----3--3-----3-|
G#|--3-----3--3-----3--3-----3--3-----3-|--3-----3--3-----3--1-----1--1-----1-|
C#|-------------------------------------|-------------------------------------|

   GTR I,II
d#|-------------------------------------|-------------------------------------|
A#|-------------------------------------|-------------------------------------|
F#|-------------------------------------|-------------------------------------|
C#|--1-----1--1-----1--1-----1--1-----1-|--0-----0--0-----0--0-----0--0-----0-|
G#|--1-----1--1-----1--1-----1--1-----1-|--0-----0--0-----0--0-----0--0-----0-|
C#|--1-----1--1-----1--1-----1--1-----1-|--0-----0--0-----0--0-----0--0-----0-|

Interlude

   GTR I,II
d#|-------------------------------------|-------------------------------------|
A#|-------------------------------------|-------------------------------------|
F#|-------------------------------------|-------------------------------------|
C#|--5--------5-----3-----------------3-|--------------------3--------3-----4-|
G#|--5--------5-----3-----------------3-|--------------------3--------3-----4-|
C#|--5--------5-----3--5----b8-r5-----3-|--5----b8-r5--------3--------3-----4-|

   GTR I,II
d#|-------------------------------------|-------------------------------------|
A#|-------------------------------------|-------------------------------------|
F#|-------------------------------------|-------------------------------------|
C#|--5--------5-----3-----------------3-|--------------------3--------3-----4-|
G#|--5--------5-----3-----------------3-|--------------------3--------3-----4-|
C#|--5--------5-----3--5----b8-r5-----3-|--5----b8-r5--------3--------3-----4-|

   GTR I,II
d#|-------------------------------------|-------------------------------------|
A#|-------------------------------------|-------------------------------------|
F#|-------------------------------------|-------------------------------------|
C#|--5--------5-----3-----------------3-|--------------------3--------3-----4-|
G#|--5--------5-----3-----------------3-|--------------------3--------3-----4-|
C#|--5--------5-----3--5----b8-r5-----3-|--5----b8-r5--------3--------3-----4-|

   GTR I,II
d#|-------------------------------------|-------------------------------------|
A#|-------------------------------------|-------------------------------------|
F#|-------------------------------------|-------------------------------------|
C#|--5--------5-----3-----------------3-|--------------------3--------3-----4-|
G#|--5--------5-----3-----------------3-|--------------------3--------3-----4-|
C#|--5--------5-----3--5----b8-r5-----3-|--5----b8-r5--------3--------3-----4-|

   GTR I,II
d#|-------------------------------------|-------------------------------------|
A#|-------------------------------------|-------------------------------------|
F#|-------------------------------------|-------------------------------------|
C#|--5--------5-----3-----------------3-|--------------------3--------3-----1-|
G#|--5--------5-----3-----------------3-|--------------------3--------3-----1-|
C#|--5--------5-----3--5----b8-r5-----3-|--5----b8-r5--------3--------3-----1-|

   GTR I,II
d#|-------------------------------------|-------------------------------------|
A#|-------------------------------------|-------------------------------------|
F#|-------------------------------------|-------------------------------------|
C#|--0----------------------------------|--0----------------------------------|
G#|--0----------------------------------|--0----------------------------------|
C#|--0----------------------------------|--0----------------------------------|

   GTR I,II
d#|-------------------------------------|-------------------------------------|
A#|-------------------------------------|-------------------------------------|
F#|-------------------------------------|-------------------------------------|
C#|--0----------------------------------|--0----------------------------------|
G#|--0----------------------------------|--0----------------------------------|
C#|--0----------------------------------|--0----------------------------------|

Silent Chorus

   GTR I,II
d#|-------------------|-------------------|-------------------|-------------------|
A#|-------------------|-------------------|-------------------|-------------------|
F#|-------------------|-------------------|-------------------|-------------------|
C#|-------------------|-------------------|-------------------|-------------------|
G#|-------------------|-------------------|-------------------|-------------------|
C#|-------------------|-------------------|-------------------|-------------------|

   GTR I,II
d#|-------------------|-------------------|
A#|-------------------|-------------------|
F#|-------------------|-------------------|
C#|-------------------|-------------------|
G#|-------------------|-------------------|
C#|-------------------|-------------------|

   GTR I,II
d#|-------------------------------------|-------------------------------------|
A#|-------------------------------------|-------------------------------------|
F#|--5-----5--5-----5--5-----5--5-----5-|--5-----5--5-----5--7--7--7--7--7--7-|
C#|--5-----5--5-----5--5-----5--5-----5-|--5-----5--5-----5--7--7--7--7--7--7-|
G#|--3-----3--3-----3--3-----3--3-----3-|--3-----3--3-----3--5--5--5--5--5--5-|
C#|-------------------------------------|-------------------------------------|

Chorus - 2x

Outro

   GTR I,II
d#|-------------------------------------|-------------------------------------|
A#|-------------------------------------|-------------------------------------|
F#|-------------------------------------|-------------------------------------|
C#|--5--------5-----3-----------------3-|--------------------3--------3-----4-|
G#|--5--------5-----3-----------------3-|--------------------3--------3-----4-|
C#|--5--------5-----3--5----b8-r5-----3-|--5----b8-r5--------3--------3-----4-|

   GTR I,II
d#|-------------------------------------|-------------------------------------|
A#|-------------------------------------|-------------------------------------|
F#|-------------------------------------|-------------------------------------|
C#|--5--------5-----3-----------------3-|--------------------3--------3-----4-|
G#|--5--------5-----3-----------------3-|--------------------3--------3-----4-|
C#|--5--------5-----3--5----b8-r5-----3-|--5----b8-r5--------3--------3-----4-|

| b  bend
| r  release bend
|trp triplet
|PH. pinch harmonic
|fbk feedback
| .  palm-mute
| /  slide up
| \  slide down
| h  hammer-on
| p  pull-off
| ~  vibrato
|(7) harmonic
| x  Mute note
===============================================================================

Tap to rate this tab
# A B C D E F G H I J K L M N O P Q R S T U V W X Y Z