Song name
# A B C D E F G H I J K L M N O P Q R S T U V W X Y Z

Theory Of A Deadman - Make Up Your Mind tab

Intro/Verse

|-0-0-00-0---0-00-0-0-0-00-0-0-0-00-----------|
|-0-0-00-0-0-0-00-0-0-0-00-0-0-0-00-3-5-------|
|-4-4-44-4-2-2-22-2-1-1-11-1-2-2-22-2-4-------|
|-4-4-44-4-2-2-22-2-2-2-22-2-2-2-22-----------|
|-2-2-22-2-0-0-00-0-2-2-22-2-0-0-00-----------|
|-------------------0-0-00-0------------------|

|-0-0-00-0---0-00-0-0-0-00-0-0----------------|
|-0-0-00-0-0-0-00-0-0-0-00-0-0----------------|
|-4-4-44-4-2-2-22-2-1-1-11-1-2----------------|
|-4-4-44-4-2-2-22-2-2-2-22-2-2----------------|
|-2-2-22-2-0-0-00-0-2-2-22-2-0----------------|
|-------------------0-0-00-0------------------|

Prechorus
|---------------------------------------------|
|---------------------------------------------|
|-2-2-2-2-2-2-2-2-----------------------------|
|-2-2-2-2-2-2-2-2-2-2-2-2-2-------------------|
|-0-0-0-0-0-0-0-0-2-2-2-2-2-------------------|
|-----------------0-0-0-0-0-------------------|
PM. . . . . . . . . . . . .

Chorus
|---------------------------------------------|
|---------------------------------------------|
|-4444-7777-9999-9999-9999-9999-9999-9999-----|
|-4444-7777-9999-9999-9999-9999-9999-9999-----|
|-2222-5555-7777-7777-2222-5555-7777-7777-----|
|-2222-5555-7777-7777-2222-5555-7777-7777-----|

|---------------------------------------------|
|---------------------------------------------|
|-4444-6666-7777-9999-4444-7777-9999-9--------|
|-4444-6666-7777-9999-4444-7777-9999-9--------|
|-2222-4444-5555-7777-2222-5555-7777-7--------|
|-2222-4444-5555-7777-2222-5555-7777-7--------|

|---------------------------------------------|
|---------------------------------------------|
|-----------7---------9-----------------------|
|-----------7---------9-----------------------|
|-----------5---------7-----------------------|
|-----------5---------7-----------------------|

Verse
|-0-0-00-0---0-00-0-0-0-00-0-0-0-00-----------|
|-0-0-00-0-0-0-00-0-0-0-00-0-0-0-00-3-5-------|
|-4-4-44-4-2-2-22-2-1-1-11-1-2-2-22-2-4-------|
|-4-4-44-4-2-2-22-2-2-2-22-2-2-2-22-----------|
|-2-2-22-2-0-0-00-0-2-2-22-2-0-0-00-----------|
|-------------------0-0-00-0------------------|

|-0-0-00-0---0-00-0-0-0-00-0-0----------------|
|-0-0-00-0-0-0-00-0-0-0-00-0-0----------------|
|-4-4-44-4-2-2-22-2-1-1-11-1-2----------------|
|-4-4-44-4-2-2-22-2-2-2-22-2-2----------------|
|-2-2-22-2-0-0-00-0-2-2-22-2-0----------------|
|-------------------0-0-00-0------------------|

Prechorus
|---------------------------------------------|
|---------------------------------------------|
|-2-2-2-2-2-2-2-2-----------------------------|
|-2-2-2-2-2-2-2-2-2-2-2-2-2-------------------|
|-0-0-0-0-0-0-0-0-2-2-2-2-2-------------------|
|-----------------0-0-0-0-0-------------------|
PM. . . . . . . . . . . . .

Chorus
|---------------------------------------------|
|---------------------------------------------|
|-4444-7777-9999-9999-9999-9999-9999-9999-----|
|-4444-7777-9999-9999-9999-9999-9999-9999-----|
|-2222-5555-7777-7777-2222-5555-7777-7777-----|
|-2222-5555-7777-7777-2222-5555-7777-7777-----|

|---------------------------------------------|
|---------------------------------------------|
|-4444-6666-7777-9999-4444-7777-9999-9999-----|
|-4444-6666-7777-9999-4444-7777-9999-9999-----|
|-2222-4444-5555-7777-2222-5555-7777-7777-----|
|-2222-4444-5555-7777-2222-5555-7777-7777-----|

Bridge
|------0000-0000-0000-------------------------|
|------0000-0000-0000-------------------------|
|-7777-2222-1111-1111-------------------------|
|-7777-2222-2222-2222-------------------------|
|-5555-0000-2222-2222-------------------------|
|-5555-0000-0000-0000-------------------------|

Guitar Solo (Chorus progression behind it)
|-----------------------------------10-------10\9-/14--|
|-----------------------------10-12----10-10-----------|
|-------9-7-11-9-9-8-------7---------------------------|
|-9-9-7--------------9-7-9-----------------------------|
|------------------------------------------------------|
|------------------------------------------------------|

Verse
|-0-0-00-0---0-00-0-0-0-00-0-0-0-00-----------|
|-0-0-00-0-0-0-00-0-0-0-00-0-0-0-00-3-5-------|
|-4-4-44-4-2-2-22-2-1-1-11-1-2-2-22-2-4-------|
|-4-4-44-4-2-2-22-2-2-2-22-2-2-2-22-----------|
|-2-2-22-2-0-0-00-0-2-2-22-2-0-0-00-----------|
|-------------------0-0-00-0------------------|

|-0-0-00-0---0-00-0---------------------------|
|-0-0-00-0-0-0-00-0---------------------------|
|-4-4-44-4-2-2-22-2---------2-2-2-2-----------|
|-4-4-44-4-2-2-22-2-2-2-2-2-2-2-2-2-----------|
|-2-2-22-2-0-0-00-0-2-2-2-2-0-0-0-0-----------|
|-------------------0-0-0-0-------------------|
                  PM. . . . . . . .

Chorus
|---------------------------------------------|
|---------------------------------------------|
|-4444-7777-9999-9999-9999-9999-9999-9999-----|
|-4444-7777-9999-9999-9999-9999-9999-9999-----|
|-2222-5555-7777-7777-2222-5555-7777-7777-----|
|-2222-5555-7777-7777-2222-5555-7777-7777-----|

|---------------------------------------------|
|---------------------------------------------|
|-4444-6666-7777-9999-4444-7777-9999-9999-----|
|-4444-6666-7777-9999-4444-7777-9999-9999-----|
|-2222-4444-5555-7777-2222-5555-7777-7777-----|
|-2222-4444-5555-7777-2222-5555-7777-7777-----|
Tap to rate this tab
# A B C D E F G H I J K L M N O P Q R S T U V W X Y Z