Song name
# A B C D E F G H I J K L M N O P Q R S T U V W X Y Z

Theory Of A Deadman - Careless tab

Drop D Tuning

Intro Lead
|--------------------------------------------------------------------------|
|--------------------------------------------------------------------------|
|-9-7-9-7-9-5--55555555/7--9-7-9-7-9--12--1212121212121212/14--9-7-9-7-9-5-|
|--------------------------------------------------------------------------|
|--------------------------------------------------------------------------|
|--------------------------------------------------------------------------|

|-----------------------------------------------------------------------|
|-----------------------------------------------------------------------|
|-55555555-7--9-7-9-7-9-12--121212121212/14-----------------------------|
|-----------------------------------------------------------------------|
|-----------------------------------------------------------------------|
|-----------------------------------------------------------------------|
|-----------------------------------------------------------------------|


Verse

|------------------------------------------------------------------------------------|
|------------------------------------------------------------------------------------|
|------------------------------------------------------------------------------------|
|-7XXXXXXXX-5XXXXXXXX-00XXXXXXXX-3XXXXXXXX-7XXXXXXXX-5XXXXXXXX-00XXXXXXXX-3XXXXXXXX--|
|-7XXXXXXXX-5XXXXXXXX-00XXXXXXXX-3XXXXXXXX-7XXXXXXXX-5XXXXXXXX-00XXXXXXXX-3XXXXXXXX--|
|-7XXXXXXXX-5XXXXXXXX-00XXXXXXXX-3XXXXXXXX-7XXXXXXXX-5XXXXXXXX-00XXXXXXXX-3XXXXXXXX--|

Pre-Chorus
P.M.----------------------|
|-------------------------|
|-------------------------|
|-------------------------|
|-33333333333333-55555555-|
|-33333333333333-55555555-|
|-33333333333333-55555555-|

Chorus
                             2X
|----------------------------------|-------|
|----------------------------------|-------|
|-7----------555555--------777777--|---5---|
|-7-5-777777-555555-555555-777777--|-7-5-5-|
|-5-5-777777-333333-555555-555555--|-7-3-5-|
|---5-777777--------555555---------|-7---5-|
Solo
|---------------------------------------------------------------------------|
|---------------------------------------------------------------------------|
|--9-7-9-5-9-7-9-4--44444444575402--9-7-9-5-9-7-9---------------------------|
|---------------------------------------------------------------------------|
|---------------------------------------------------------------------------|
|---------------------------------------------------------------------------|

|---------------------------------------------------------------------------|
|---------------------------------------------------------------------------|
|-12-1212121212121212b-121212121212--999-77--5-4----------------------------|
|---------------------------------------------------------------------------|
|---------------------------------------------------------------------------|
|---------------------------------------------------------------------------|

|---------------------------------------------------------------------------|
|---------------------------------------------------------------------------|
|-9/121212-141414-161616-171717-19-19-21trill------21 slide to chorus-|
|---------------------------------------------------------------------------|
|---------------------------------------------------------------------------|
|---------------------------------------------------------------------------|
Tap to rate this tab
# A B C D E F G H I J K L M N O P Q R S T U V W X Y Z