Song name
# A B C D E F G H I J K L M N O P Q R S T U V W X Y Z

Theory Of A Deadman - Bad Girlfriend tab

-----------------------------------------------------------------------|
---17/19-15-13/15-17-------------------13-13/15------------------------|
-----------------------------------------------------------------------|
-----------------------12/15-15/12---------------12/15/12--12/10-------|
-----------------------------------------------------------------------|
-----------------------------------------------------------------------|

-----------------------------------------------------------------------|
-----------------------------------------------------------------------|
-------------------------------------14-12-12/10-----------14-12-12-10-|
---------------------------12-12-12---------------12-12-12-------------|
---12/10-12/10-12/10--8~-----------------------------------------------|
-----------------------------------------------------------------------|

------------17-15-15/13------------------------------------------------|
--15-15-15---------------15-13-14-15-13-14-15--------------------------|
-----------------------------------------------------------------------|
-----------------------------------------------------------------------|
-----------------------------------------------------------------------|
-----------------------------------------------------------------------|

Just some tweaks to other solos, might be completely wrong but when I tried to play 
along with the song,
it seemed different, p.s. i'm a beginner and this is my first tab so don't take my word 
for it!
Tap to rate this tab
# A B C D E F G H I J K L M N O P Q R S T U V W X Y Z