Song name
# A B C D E F G H I J K L M N O P Q R S T U V W X Y Z

Theory Of A Deadman - Drown tab

-------------------------------------------------------------------------------
			     Drown - Theory of a Deadman
-------------------------------------------------------------------------------
Tabbed by: Grizzly
E-mail:

Tuning:Drop C

Intro GTR I: 
d|---------------------------------------------------------------------------|
A|---------------------------------------------------------------------------|
F|---------------------------------------------------------------------------|
C|----6--5--3--0-------------6--5--3--0----------------3--1--0-----------(x4)|
G|----6--5--3--0-------------6--5--3--0----------------3--1--0-----------(x4)|
C|----6--5--3--0-------------6--5--3--0----------------3--1--0-----------(x4)|
                                                       x  x  x Palm muted 4th time

Intro GTR II:                                           
d|---------------------------------------------------------------------------|
A|-----------15---15--15--15\----------------------(x2)----------------------|
F|---------/14--14--14--14-------------------------(x2)----------------------|
C|---------------------------------------------------------------------------|
G|---------------------------------------------------------------------------|
C|---------------------------------------------------------------------------|
 w/ slide             comes in after intro is played twice

Verse: Both GTR's
d|---------------------------------------------------------------------------|
A|---------------------------------------------------------------------------|
F|---------------------------------------------------------------------------|
C|---------------------------------------------------------------------------|
G|---------------------------------------------------------------------------|
C|---------------------------------------------------------------------------|
guitar comes in at 0:35
d|---------------------------------------------------------------------------|
A|---------------------------------------------------------------------------|
F|---------------------------------------------------------------------------|
C|---------------------------------------------------------------------------|
G|---------------------------------------------------------------------------|
C|--6--5--3--0--0--0--0--0--6--5--3--0--0--0--0--0--3--1--0--0---------------|
    x  x  x  x  x  x  x  x  x  x  x  x  x  x  x  x  x  x  x  x

Chorus: Both GTR's
d|----------------------------------------------------------------------------------------------|
A|----------------------------------------------------------------------------------------------|
F|----------------------------------------------------------------------------------------------|
C|--8--8--10--10--5--5--10--10--8--8--10-----6--5--3--0----6--5--3--0----3--1--0---------(x2)---|
F|--8--8--10--10--5--5--10--10--8--8--10-----6--5--3--0----6--5--3--0----3--1--0---------(x2)---|
C|--8--8--8---8---5--5--10--10--8--8--10-----6--5--3--0----6--5--3--0----3--1--0---------(x2)---|
  GTR II: played 2nd time at 1:12                                        x  x  x Palm Muted 2nd time
d|----------------------------------------------------------------------------------------|
A|-----15--15--15--15\--------------------------------------------------------------------|
F|--/14--14--14--14-----------------------------------------------------------------------|
C|----------------------------------------------------------------------------------------|
G|----------------------------------------------------------------------------------------|
C|----------------------------------------------------------------------------------------|
Verse 2

Chorus

Solo:     w/ slide
d|---------------------------------------------------------------------------|
A|---------------------------------------------------------------------------|
F|--/--\----/10-7-5-5-5\-/4\-/5\-/4\-/5\2--/14-14-14-14-14\12----------------|
C|---------------------------------------------------------------------------|
G|---------------------------------------------------------------------------|
C|---------------------------------------------------------------------------|

d|---------------------------------------------------------------------------|
A|---------------------------------------------------------------------------|
F|----/19--/19--/19--/19/----------------------------------------------------|
C|---------------------------------------------------------------------------|
G|---------------------------------------------------------------------------|
C|---------------------------------------------------------------------------|
Rhythm Guitar during the solo plays intro

Verse 3

Chorus

Outro (same as intro)

************************************

| /   slide up
| \   slide down
| h   hammer-on
| p   pull-off
| ~   vibrato
| +   harmonic
| x   Mute note
| b   Bend
| pb  Pre-bend
| br  Bend release
| pbr Pre-bend release
| brb Bend release bend

************************************
Tap to rate this tab
# A B C D E F G H I J K L M N O P Q R S T U V W X Y Z