Song name
# A B C D E F G H I J K L M N O P Q R S T U V W X Y Z

Theory Of A Deadman - Hello Lonely tab

Intro: Acoustic x2
e|--------------------------|
B|--------------------------|
G|4-4-4--4-4-4-4-4-x-x---2--|
D|2-2-2--2-2-2-2-2-x-x-2-2--|
A|4-4-4--4-4-4-2---x-x-0-0--|
E|---------------4-x-x------|

 Verse: Acoustic 10x
                             times 1-3,5-10 play
e|--------------------------|------------------------------------|
B|--------------------------|------------------------------------|
G|4-4-4--4-4-4-4-4-x-x---2--|-2-2-2-2-2-2--2-2-2-2-2-2-2---------|
D|2-2-2--2-2-2-2-2-x-x-2-2--|-2-2-2-2-2-2--2-2-2-2-0-0-0-x-x-----|
A|4-4-4--4-4-4-2---x-x-0-0--|-0-0-0-0-0-0--0-0-0-0-------x-x-----|
E|---------------4-x-x------|----------------------2-2-2-x-x-----|

  4th time play
e|------------------|
B|------------------|
G|-2-2-2-2-2-2-2-2--|
D|-2-2-2-2-2-2-2-2--|
A|-0-0-0-0-0-0-0-0--|
E|------------------|
 
 Pre Chorus
e|---------------------------------------------------------------|
B|---------------------------------------------------------------|
G|---------------------------------------------------------------|
D|-2--2--2-2-4-4-4-4-4-4-2--2--2-2-4-4-4-4-4-4-2--2--2-2-4-4-4-4-|
A|-0--0--0-0-0-0-0-0-0-0-0--0--0-0-0-0-0-0-0-0-0--0--0-0-0-0-0-0-|
E|---------------------------------------------------------------|

e|---------------------------------------------------------------|
B|---------------------------------------------------------------|
G|-4-4-2--2--2-2-4-4-4-4-4-4-2--2--2-2-2-2-2-2-2-2---------------|
D|---------------------------------------------------------------|
A|-0-0-0--0--0-0-0-0-0-0-0-0-0--0--0-0-0-0-0-0-0-0---------------|
E|---------------------------------------------------------------|

 Chorus: Acoustic and distorted Electric
e|---------------------------------------------------------------|
B|------------------------------------------------2-2-2-2-2-2222-|
G|-1--1-1-1--1-11111--1-1--4--4--4--4--4444--4-4--2-2-2-2-2-2222-|
D|-2--2-2-2--2-22222--2-2--4--4--4--4--4444--4-4--2-2-2-2-2-2222-|
A|-2--2-2-2--2-22222--2-2--2--2--2--2--2222--2-2--0-0-0-0-0-0000-|
E|-0--0-0-0--0-00000--0-0----------------------------------------|

e|-------------- |
B|-2-2-2-2-2-2--.|
G|-2-2-2-2-2-2-- |
D|-2-2-2-2-2-2-- |
A|-0-0-0-0-0-0--.|
E|-------------- |

  Electric guitar 2 throughout Chorus
e|--------4--2--4--|
B|----555----------|
G|-4---------------|
D|-----------------|
A|-----------------|
E|-----------------|

 Bridge: Distorted Electric
e|---------------------------------------------------------------|
B|---------------------------------------------------------------|
G|-4--4-4-4--6--9-9-9-9--11/1313-13-13-13-13-\-111111------------|
D|---------------------------------------------------------------|
A|-2--2-2-2--4--7-7-7-7--9/11-11-11-11-11-11-\-9-9-9-------------|
E|---------------------------------------------------------------|

e|---------------------------------------------------------------|
B|---------------------------------------------------------------|
G|-4--4-4-4--6--9-9-9-9--11/1313-13-13-16-16-16-16-16-16---------|
D|---------------------------------------------------------------|
A|-2--2-2-2--4--7-7-7-7--9/11-11-11-11-14-14-14-14-14-14---------|
E|---------------------------------------------------------------|

e|---------------------------------------------------------------|
B|---------------------------------------------------------------|
G|-4-4-4-4--66--9-9-9-9-------------------2----6-6---4-4--2------|
D|-----------------------7-----7--6----4--2----6-6---4-4--2------|
A|-2-2-2-2--44--7-7-7-7--7-----7--6----4--0----4-4---2-2--0------|
E|-----------------------5-----5--4----2-------------------------|

| /  slide up
| \  slide down
| h  hammer-on
| p  pull-off
| ~  vibrato
| +  harmonic
| x  Mute note
Tap to rate this tab
# A B C D E F G H I J K L M N O P Q R S T U V W X Y Z