Song name
# A B C D E F G H I J K L M N O P Q R S T U V W X Y Z

Theory Of A Deadman - Hating Hollywood tab

Author/Artist: Theory Of a Deadman
Title: Hating Hollywood
Album: Gasoline
Transcribed by: Otacon.
Email: otacon__x@hotmail.com


Tuning: STANDARD

-------------------------------------|----------------------------------------|
-------------------------------------|----------------------------------------|
-5/7-7-5-----------5/7-7-5-----------|----------------------------------------|
----------------------------3/5-5-3--|-------2-4-4-2-4-4-2-4-4-2-4-4----------|
----------5-5-3-3--------------------|-------3-5-5-3-5-5-3-5-5-3-5-5----------|
-------------------------------------|----------------------------------------|
 Intro  G1                              Enter G2

------------|-----------------------------------------------------------------|
------------|-----------------------------------------------------------------|
--7-5-7-----|---7/5-10-5-7--7/5-10-5-7----------------------------------------|
--7-5-7-----|---7/5-10-5-7--7/5-10-5-7----------------------------------------|
--5-3-5-----|---5/3-8--3-5--5/3-8--3-5----------------------------------------|
------------|-----------------------------------------------------------------|
 G1 and G2     "pre-verse" G1 and G2

----------------------------------------------------------|------------|------|
----------------------------------------------------------|------------|------|
--5-7-7-5-7--5-7--5-7--5-7--5-77-x-5-7-7-5-7-5-7-7-5------|---7-5-10---|------|
--5-7-7-5-7--5-7--5-7--5-7--5-77-x-5-7-7-5-7-5-7-7-5-3vvv-|---7-5-10---|------|
--3-5-5-3-5--3-5--3-5--3-5--3-55-x-3-5-5-3-5-3-5-5-3-3vvv-|---5-3-8----|------|
-----------------------------------------------------1vvv-|------------|------|
  Verse 1 G1 and G2                        (..in my head)

-------------------------------------------------------|-----------------|----|
-------------------------------------------------------|-----------------|----|
-5-7-7-5-7--5-7-7-5-7--5-7-7x--5-7-7-5-7--5-7-7-5------|-----------------|----|
-5-7-7-5-7--5-7-7-5-7--5-7-7x--5-7-7-5-7--5-7-7-5-3----|-----------------|----|
-3-5-5-3-5--3-5-5-3-5--3-5-5x--3-5-5-3-5--3-5-5-3-3----|--------------5--|----|
--------------------------------------------------1vvv-|----5-3-1-3-1----|----|
 Well how 'bout...    G1                                ..foot in the grave

--------------------------|------------8vv-|----------------------------------|
---7-8-7-8-7/10-7/10-7/10-|--7-8-7-8-7-----|----------------------------------|
--------------------------|----------------|----------------------------------|
--------------------------|----------------|----------------------------------|
--------------------------|----------------|--------------5-------------------|
--------------------------|----------------|----5-3-1-3-1---------------------|
 G2                                            ....foot in the grave

-|-------------------------------------|-------------|------------------------|
-|-------------------------------------|-------------|------------------------|
-|--5-7-5-7-5-7-5-7-5-7----5-7-5-7-5-7-|-------------|--5-7-5-5-5-7-5-7-7-5x--|
-|--5-7-5-7-5-7-5-7-5-7----5-7-5-7-5-7-|-------------|--5-7-5-7-5-7-5-7-7-5x--|
-|--3-5-3-5-3-5-3-5-3-5vv--3-5-3-5-3-5-|-----------5-|--3-5-3-5-3-5-3-5-5-3x--|
-|-------------------------------------|-5-3-1-3-1---|------------------------|
 Chorus   G1 and G2                     im hating..   -finishing chorus..


Verse 2 as same like Verse 1.
Chorus as the same.


-------------------------------------|----------------------------------------|
-------------------------------------|----------------------------------------|
-5/7-7-5-----------5/7-7-5-----------|----------------------------------------|
----------------------------3/5-5-3--|-------2-4-4-2-4-4-2-4-4-2-4-4----------|
----------5-5-3-3--------------------|-------3-5-5-3-5-5-3-5-5-3-5-5----------|
-------------------------------------|----------------------------------------|
G1                                      Enter G2

BRIDGE is same like the intro...till then to the last "im hating hollywood!".

----------------------------------|-------------------------------------------|
----------------------------------|----------15-------------------------------|
-5/7-7-5-5-7-5-7/10-5/7-7-5-------|--5/7-10--14-------------------------------|
----------------------------7-6-5-|-------------------------------------------|
----------------------------------|-------------------------------------------|
----------------------------------|-------------------------------------------|
 Solo G1

-------------------------------------|
--7-5-10-5-7--7-5-10-5-7--7-5-7------| Play this while G1 does the solo.
--7-5-10-5-7--7-5-10-5-7--7-5-7------|
--5-3-8--3-5--5-3-8--3-5--5-3-5------|
-------------------------------------|
-------------------------------------|
 G2


----------------------------------------------------------------|
----------------------------------------------------------------|
--7/5-10-5-7--7/5-10-5-7----------------------------------------|
--7/5-10-5-7--7/5-10-5-7----------------------------------------|
--5/3-8--3-5--5/3-8--3-5----------------------------------------|
----------------------------------------------------------------|

 3:00 ...last part of the song is like this. ---> G2!!!


----------------------------------------------------------------|
----------------------------------------------------------------|
---7/5/10-5-7--7/5/10-5-7-7-5-7---------------------------------|
----------------------------------------------------------------|
----------------------------------------------------------------|
----------------------------------------------------------------|

 And G1...

----------------------------------------------------------------|
--------15vvvv--------------------------------------------------|
--10-14-14vvvv--------------------------------------------------|
----------------------------------------------------------------|
----------------------------------------------------------------|
----------------------------------------------------------------|


3:13 G1

And this is a alternative ending...just for if u want..


----------------------------------------------------------------|
----------------------------------------------------------------|
----------------------------------------------------------------|
------0vvvvvvvvvvvvvvvvvvvvvvvvvvvvvvvvvvvvvvvvvvvvvvvvv--------|
----------------------------------------------------------------|
----------------------------------------------------------------|


Well...that's it.
I hope this helped ...


ENJOY! ^^
Tap to rate this tab
# A B C D E F G H I J K L M N O P Q R S T U V W X Y Z