Song name
# A B C D E F G H I J K L M N O P Q R S T U V W X Y Z

Therapy - Six Mile Water tab

Help us improve GuitareTab! Take a short survey!
Therapy?
Six Mile Water
Suicide Pact - You First

Standard Tuning

Intro/Verse pt1
|--------------------------|--------------------------|
|--------------------------|--------------------------|
|---4----4----4----4-----4-|---4----4----4----4-------|
|---4----4----2----2-----2-|---4----4----2----2--0h2--|
|--------------------------|--------------------------|
|-0----0----0----0----0----|-0----0----0----0---------|

Verse pt2
|--------------------------|--------------------------|
|--------------------------|--------------------------|
|--------------------------|--------------------------|
|---5----5----5----5-----5-|---5----5----5----5-------|
|---5----5----3----3-----3-|---5----5----3----3--2h3--|
|-3----3----3----3----3----|-3----3----3----3---------|

Verse1 pt1
Me and you used to be like brothers,
on the nights we got drunk to each other.
You know me I used to have some wit,
it ended up in a shit-filled sandpit.

Verse1 pt2
We come from across the border,
we drink the six mile water.
This mongrol needs a new home.
This mongrol needs a new home.

Verse2 pt1
That time when things got better,
we'd take trips across the wire.
Like the night we took mad acid,
Swore we saw the city hall on fire.

Verse2 pt2
We come from across the border,
we drink the six mile water.
This mongrol needs a new home.
This mongrol needs a new home.

Chorus
Em7 |  |  | C/D |  |  | G  |  |  |  |  |  |  |
                   I'm sorry,

Em7 |  |  | C/D |  |  | G  |  |  |  |  |  |  |
                   I'm sorry,

Em7 |  |  | C/D |  |  | G  |  |  |  |  |  |  |
                   I'm sorry,

Em7 |  |  | C/D |  |  | G
 But i'm not ready for home.

Intro

Verse3 pt1
Bukowski day i'm gonna miss it,
get together each month for a day.
All the memories I have are,
decked out in Presbyterian gray.

Verse3 pt2
We came from across the border,
we drank the six mile water.
This mongrol needs a new home.
This mongrol needs a new home.

Chorus
Em7 |  |  | C/D |  |  | G  |  |  |  |  |  |  |
                   I'm sorry,

Em7 |  |  | C/D |  |  | G  |  |  |  |  |  |  |
                   I'm sorry,

Em7 |  |  | C/D |  |  | G  |  |  |  |  |  |  |
                   I'm sorry,

Em7 |  |  | C/D |  |  | G
 But i'm not ready for home.

Solo (w/slide)
|-----------------------|----------------------------|
|-----------------------|----------------------------|
|-16//---/4--4\5-5/7-4~-|-\\16//---/4--4/5-5/7-7/12~-|
|-----------------------|----------------------------|
|-----------------------|----------------------------|
|-----------------------|----------------------------|x2

Verse4 pt1
Me and you don't talk of one another,
It never really started out that way.
I always meant to write you a letter,
always meant to call you some day.

Verse3 pt2
We came from across the water,
we drank the six mile water.
This mongrol needs a new home.
This mongrol needs a new home.

Chorus
Em7 |  |  | C/D |  |  | G  |  |  |  |  |  |  |
                   I'm sorry,

Em7 |  |  | C/D |  |  | G  |  |  |  |  |  |  |
                   I'm sorry,

Em7 |  |  | C/D |  |  | G  |  |  |  |  |  |  |
                   I'm sorry,

Em7 |  |  | C/D |  |  | G
 But i'm not ready for home.

Repeat last chorus with solo.
cant figure out last solo soz.

Em7-|0 2 2 0 3 3|
C/D-|x 3 2 0 3 3|
G  -|3 2 0 0 3 3|

ENJOI.
Related for Six Mile Water tab