Song name
# A B C D E F G H I J K L M N O P Q R S T U V W X Y Z

Therapy - Stand In Line tab

THERAPY?
Stand In Line

Tuning: DADGBE

Intro
|-----------------------------------------------------|
|-----------------------------------------------------|
|-----------------------------------------------------|
|-101010810----101010810----101010810----101010810----|
|-101010810/13-101010810/13-101010810/13-101010810/13-|
|-101010810/13-101010810/13-101010810/13-101010810/13-|

|-------------------------------------------------|
|-------------------------------------------------|
|-------------------------------------------------|
|-101010810----101010810----101010810-------------|
|-101010810/13-101010810/13-101010810-15-14-12-10-|
|-101010810/13-101010810/13-101010810-15-14-12-10-|

Verse
|-------------------------------------------|
|-------------------------------------------|
|-------------------------------------------|
|-101010810-101010810-101010810-------------|
|-101010810-101010810-101010810-15-14-12-10-|
|-101010810-101010810-101010810-15-14-12-10-|x2

|---------------------------------------------------------------|
|---------------------------------------------------------------|
|---------------------------------------------------------------|
|-5~--------8~--------101010810-101010810-101010810-------------|
|-5~--------8~--------101010810-101010810-101010810-15-14-12-10-|
|-5~--------8~--------101010810-101010810-101010810-15-14-12-10-|

|-------------------------------------------|
|-------------------------------------------|
|-------------------------------------------|
|-101010810-101010810-101010810-------------|
|-101010810-101010810-101010810-15-14-12-10-|
|-101010810-101010810-101010810-15-14-12-10-|x2

Chorus
|-55-------55-66-------66-55-------55-33-------33-|
|----66----------66----------66----------55-------|
|-------77----------77----------55----------55----|
|-------------------------------------------------|
|-------------------------------------------------|
|-------------------------------------------------|

|-------------------------------------------|
|-------------------------------------------|
|-------------------------------------------|
|-00000------/88888-------33333------/55555-|
|-00000------/88888-------33333------/55555-|
|-00000------/88888-------33333------/55555-|

|-------------------------------------------|
|-------------------------------------------|
|-------------------------------------------|
|-101010810-101010810-101010810-------------|
|-101010810-101010810-101010810-15-14-12-10-|
|-101010810-101010810-101010810-15-14-12-10-|x2

Verse 2
|-------------------------------------------|
|-------------------------------------------|
|-------------------------------------------|
|-101010810-101010810-101010810-------------|
|-101010810-101010810-101010810-15-14-12-10-|
|-101010810-101010810-101010810-15-14-12-10-|x2

Chorus 2
|-55-------55-66-------66-55-------55-33-------33-|
|----66----------66----------66----------55-------|
|-------77----------77----------55----------55----|
|-------------------------------------------------|
|-------------------------------------------------|
|-------------------------------------------------|x2

|-------------------------------------------|
|-------------------------------------------|
|-------------------------------------------|
|-00000------/88888-------33333------/55555-|
|-00000------/88888-------33333------/55555-|
|-00000------/88888-------33333------/55555-|x2

Interlude
|-----------------------------------------------------|
|-----------------------------------------------------|
|-----------------------------------------------------|
|-10p8h10p8h10-10p8h10p8h10-10p8h10p8h10-10p8h10p8h10-|
|-----------------------------------------------------|
|-----------------------------------------------------|

|------------------------------------------------------------------|
|------------------------------------------------------------------|
|-12~------12~------12h15p12~------12~------12~------12h15p12------|
|------------------------------------------------------------------|
|------------------------------------------------------------------|
|------------------------------------------------------------------|

|-----------------------------------------------------|
|-----------------------------------------------------|
|-----------------------------------------------------|
|-10p8h10p8h10-10p8h10p8h10-10p8h10p8h10-10p8h10p8h10-|
|-----------------------------------------------------|
|-----------------------------------------------------|

Bridge
|---------------------------------------------------------------------|
|---------------------------------------------------------------------|
|-12~------/10~------/9~--------------15~------/10~------/12p10p9~----|
|---------------------------------------------------------------------|
|---------------------------------------------------------------------|
|---------------------------------------------------------------------|

|---------------------------------------------------------------|
|---------------------------------------------------------------|
|---------------------------------------------------------------|
|-5~--------8~--------101010810-101010810-101010810-------------|
|-5~--------8~--------101010810-101010810-101010810-15-14-12-10-|
|-5~--------8~--------101010810-101010810-101010810-15-14-12-10-|

Chorus 3
|-55-------55-66-------66-55-------55-33-------33-|
|----66----------66----------66----------55-------|
|-------77----------77----------55----------55----|
|-------------------------------------------------|
|-------------------------------------------------|
|-------------------------------------------------|x4

|-------------------------------------------|
|-------------------------------------------|
|-------------------------------------------|
|-00000------/88888-------33333------/55555-|
|-00000------/88888-------33333------/55555-|
|-00000------/88888-------33333------/55555-|x4

Outro
|-------------------------------------------------------------|
|-------------------------------------------------------------|
|-------------------------------------------------------------|
|-101010810-101010810-101010810-101010810-101010810-101010810-|
|-101010810-101010810-101010810-101010810-101010810-101010810-|
|-101010810-101010810-101010810-101010810-101010810-101010810-|

|-------------------------|
|-------------------------|
|-------------------------|
|-1010810-1010810-1010810-|
|-1010810-1010810-1010810-|
|-1010810-1010810-1010810-|

|----------------------------------------------------------------|
|----------------------------------------------------------------|
|-12~------12~------12h15p12~------15h17p15~------15h17p15~------|
|----------------------------------------------------------------|
|----------------------------------------------------------------|
|----------------------------------------------------------------|

|-------------------------------------|
|-------------------------------------|
|-17171717171717171717171717171717///-|
|-------------------------------------|
|-------------------------------------|
|-------------------------------------|
Tap to rate this tab
# A B C D E F G H I J K L M N O P Q R S T U V W X Y Z