Song name
# A B C D E F G H I J K L M N O P Q R S T U V W X Y Z

Therapy - Isolation tab

Help us improve GuitareTab! Take a short survey!
#----------------------------------PLEASE NOTE---------------------------------#
#This file is the author's own work and represents their interpretation of the #
#song. You may only use this file for private study, scholarship, or research. #
#------------------------------------------------------------------------------#
#

Isolation as covered by Therapy?

This is on the Troublegum album and the Isolation single.

------------------------------------------------------------------------------

The main riff is something like:

E|----------------|----------------|----------------|----------------|
B|----------------|----------------|----------------|----------------|
G|----------------|----------------|----------------|----------------|
D|----------------|----------------|----------------|--------7-7-7-7-|
A|5-7-7-7-5-7-7-7-|5-7-7-7---------|5-7-7-7-5-7-7-7-|5-7-7-7---------|
E|----------------|--------5-5-5-5-|----------------|----------------|

And the higher up bit is:

7 and 9 on the G string with a bit of bending.

Chorus is along the lines of:

  D5E5    D5E5     D5E5    A5       D5E5    D5E5     D5E5    A5
E|----------------|----------------|----------------|----------------|
B|----------------|----------------|----------------|----------------|
G|7-9-9-9-7-9-9-9-|7-9-9-9---------|7-9-9-9-7-9-9-9-|7-9-9-9-E-E-E-E-|
D|7-9-9-9-7-9-9-9-|7-9-9-9-7-7-7-7-|7-9-9-9-7-9-9-9-|7-9-9-9-E-E-E-E-|
A|5-7-7-7-5-7-7-7-|5-7-7-7-7-7-7-7-|5-7-7-7-5-7-7-7-|5-7-7-7-C-C-C-C-|
E|----------------|--------5-5-5-5-|----------------|----------------|

There, that'll do for a start :-)
Related for Isolation tab