Therapy - Hate Kill Destroy tab

not quite sure how that weird intro goes, but it soon erupts into this:

E |------------------------------------------------------------------------------|
B |------------------------------------------------------------------------------|
G |------------------------------------------------------------------------------|
D |--9----8----7----6----5-----5--5--5--5--5-----5-----5--5--5-----5-----5-------|
A |--9----8----7----6----5-----5--5--5--5--5-----5-----5--5--5-----5-----5-------|
D |--9----8----7----6----5-----5--5--5--5--5-----5-----5--5--5-----5-----5-------|


--------|
--------|
--------|
5--5----|
5--5----|
5--5----|  x4 or something

then just play the 9-8-7-6-5 and lyrics come in

chorus is just going back and forth between these chords:

E |-----          -----|
B |-----          -----|
G |-----          -----|
D |--1--          --5--|
A |--1--          --5--|
D |--1--... and   --5--|

Heres the solo:

E |-----------------------------------------------------------------------------|
B |--8h-7h-6--------------------------------------------------------------------|
G |-----------8h-7h-6-----------------------------------------------------------|
D |--------------------8h-7h-6--------------------------------------------------|
A |-----------------------------8h-7h-6--5-----------------5-----5-----6--------|
D |-----------------------------------------------------------------------------|


-----------------------|
-----------------------|
---------8-------------|
-----------------------|
-----------------------|
-----------------------|


--------------------------------------------------------------------------------|
--8h-7h-6-----------------------------------------------------------------------|
-----------8h-7h-6--------------------------------------------------------------|
--------------------8h-7h-6-----------------------------------------------------|
-----------------------------8h-7h-6--5-----------------5-----5-----6-----------|
--------------------------------------------------------------------------------|


------6-------------|
--------------------|
--------------------|
--------------------|
--------------------|
--------------------|

another verse, then the very last thing is 9-8-7-6-5-4-5
Tap to rate this tab
 
# A B C D E F G H I J K L M N O P Q R S T U V W X Y Z