Song name
# A B C D E F G H I J K L M N O P Q R S T U V W X Y Z

Therapy - Little Tongues First tab

#-----------------------------------------------------------------------------#
#-- File created with Instab - http://www.pconline.com/~smcarey/instab.html --#
#-----------------------------------------------------------------------------#

Author/Artist: therapy
Title: little tongues first
Album: suicide pact-you first
Transcribed by: Pogue_boy
Email: Pogue_boy@hotmail.com

This is my first tab. I think it's quite good. Some parts are missing.
Mail me for improvements or questions.


INTRO
------------------------------------------------------------------------------|
------------------------------------------------------------------------------|
-5-5-5-5-5-4-4--7-7-7-7-7-6-6--5-5-5-5-5-4-4--1-1-1-2-2-----------------------|
------------------------------------------------------------------------------|
------------------------------------------------------------------------------|
------------------------------------------------------------------------------|


------------------------------------------------------------------------------|
------------------------------------------------------------------------------|
------------------------------------------------------------------------------|
-7-7-7-7-7-6-6-6-6--9-9-9-9-9-8-8-8-8--7-7-7-7-7-6-6-6-6--3-3-3-4-4-----------|
-5-5-5-5-5-4-4-4-4--7-7-7-7-7-6-6-6-6--5-5-5-5-5-4-4-4-4--1-1-1-2-2-----------|
------------------------------------------------------------------------------|

VERSE
------------------------------------------------------------------------------|
------------------------------------------------------------------------------|
-5/4/3--5/4/3--5/4------------------------------------------------------------|
------------------------------------------------------------------------------|
------------------------------------------------------------------------------|
------------------------------------------------------------------------------|
 "This my vision, this is my world,....."

------------------------------------------------------------------------------|
------------------------------------------------------------------------------|
------------------------------------------------------------------------------|
-7-7-7-7-7-6-6-6-6--9-9-9-9-9-8-8-8-8--7-7-7-7-7-6-6-6-6--3-3-3-4-4-----------|
-5-5-5-5-5-4-4-4-4--7-7-7-7-7-6-6-6-6--5-5-5-5-5-4-4-4-4--1-1-1-2-2-----------|
------------------------------------------------------------------------------|
I don't know the bridge that follows,sorry...

CHORUS
------------------------------------------------------------------------------|
------------------------------------------------------------------------------|
------------------------------------------------------------------------------|
--7-7-7-7-6-6-6-6-4-4-4-4-----------------------------------------------------|
--5-5-5-5-4-4-4-4-2-2-2-2-----------------------------------------------------|
------------------------------------------------------------------------------|
 "suicide pact,suicide pact,...."

After chorus
-------------------------------------------------------------------------------|
-------------------------------------------------------------------------------|
--5-5-5-5-5-4-4--7-7-7-7-7-6-6--5-5-5-5-5-4-4--1-1-1-2-2-----------------------|
-------------------------------------------------------------------------------|
-------------------------------------------------------------------------------|
-------------------------------------------------------------------------------|


------------------------------------------------------------------------------|
------------------------------------------------------------------------------|
------------------------------------------------------------------------------|
---------------------------7--6--5--4-----------------------------------------|
---------------------------5--4--3--2-----------------------------------------|
------------------------------------------------------------------------------|
Then play bridge and chorus...

And to finish this outro (best played with two guitars,one the first bar the other the second)
------------------------------------------------------------------------------|
------------------------------------------------------------------------------|
---5-/6/7/8/9/10/11/12---12/11/10/9/8/7---------------------------------------|
------------------------------------------------------------------------------|
------------------------------------------------------------------------------|
------------------------------------------------------------------------------|


------------------------------------------------------------------------------|
------------------------------------------------------------------------------|
------------------------------------------------------------------------------|
------------------9-------------------9---------------------------------------|
--5h7-5h7-5h7-5h7-7---5h7-5h7-5h7-5h7-7---------------------------------------|
------------------------------------------------------------------------------|
Tap to rate this tab
 
# A B C D E F G H I J K L M N O P Q R S T U V W X Y Z