Song name
# A B C D E F G H I J K L M N O P Q R S T U V W X Y Z

Therapy - Die Laughing Acoustic tab

Therapy
Die laughing [acostic]
By: Per Karlsson [peer83@hotmail.com]

Standard Tuning

LEGEND:
x - mute

INTRO/VERSE:
e|----------------------------------------------------------------|--0--|
B|----------------------------------------------------------------|--0--|
G|----------7---------------7---7----------4---------------4---4--|--4--|
D|--5-5-5-5---5-5-5-5-5-5-5---5----2-2-2-2---2-2-2-2-2-2-2---2----|--2--|
A|--5-5-5-5---5-5-5-5-5-5-5---5----2-2-2-2---2-2-2-2-2-2-2---2----|--2--|
E|----------------------------------------------------------------|-----|

CHORUS:
e|--5--3--3--|
B|--5--3--3--|
G|--7--5--4--|
D|--7--5--5--|
A|--5--3--5--|
E|--5--3--3--|

BRIDGE:
guitar 1: 6x
e|---------------------------------------|
B|---------------------------------------|
G|---------------------------------------|
D|--10x-x-10x-x-10x-x-9-x-x-9-x-x-9-x-x--|
A|--10x-x-10x-x-10x-x-9-x-x-9-x-x-9-x-x--|
E|--8-x-x-8-x-x-8-x-x-7-x-x-7-x-x-7-x-x--|

guitar 2: 2x
e|---------------------------------------|
B|---------------------------------------|
G|--6-x-x-6-x-x-6-x-x-5-x-x-5-x-x-5-x-x--|
D|--6-x-x-6-x-x-6-x-x-5-x-x-5-x-x-5-x-x--|
A|--4-x-x-4-x-x-4-x-x-3-x-x-3-x-x-3-x-x--|
E|---------------------------------------|
then: 4x
e|-----------------------------------|
B|-----------------------------------|
G|----0-----0-----0---0-----0-----0--|
D|------3-----3---------2-----2------|
A|--4-----4-----4---3-----3-----3----|
E|-----------------------------------|

both guitars:
e|--3--0--|
B|--3--0--|
G|--4--0--|
D|--5--2--|
A|--5--2--|
E|--3--0--|

ENDING: 
end on |  and add this little thingy just by the end
e|--3--|--3---3--|
B|--3--|----3-3--|
G|--4--|------4--|
D|--5--|------5--|
A|--5--|------5--|
E|--3--|------3--|

PROGRESSION:
INTRO
CHORUS
VERSE
CHORUS
VERSE
CHORUS
BRIDGE
CHORUS
ENDING
Tap to rate this tab
 
# A B C D E F G H I J K L M N O P Q R S T U V W X Y Z