Song name
# A B C D E F G H I J K L M N O P Q R S T U V W X Y Z

Therapy - Rock You Monkeys tab

Rock You Monkeys by Therapy?

Intro / Main Riff
  ___________ X3 ________
 /                       \
e|-------------------------|----------------------|
B|-------------------------|----------------------|
G|-------------------------|-------3--------6-----|
D|---10-10-10-9--6-66-66---|---333-3-3--666-6-6---| X2
A|---10-10-10-9--6-66-66---|---333-1-3--666-4-6---|
E|----8--8--8-7--4-44-44---|---111---1--444---4---|
     Rock        Monkeys
              You    

1st + 2nd Verse

-The 1st is mainly bass but this is played once half way 
through and once at the end of the verse. Then for the
second verse, only at the end.

e|-------------------------|
B|-------------------------|
G|-------------------------|
D|---55555555-88888888-----|
A|---55555555-88888888-----|
E|---33333333-66666666-----|
  

Solo

- In the studio version, this is also played behind the main
riff later in the song.

e|----------------------------------|
B|------8-11-9----------8-11-9-8----|
G|-----8---------------8------------|
D|----8---------------8-------------|
A|--10--------------10--------------|
E|----------------------------------|

Bridge Into 3rd Verse 

e|----------------|
B|---11-9---9-8---|
G|----------------|
D|----------------|
A|----------------|
E|----------------|

3rd Verse

-This is only bass until the end of the verse


e|-------------------------------------|
B|---1-1-1-1-1-1-1-1-1-1-1-1-1-1-1-1---|
G|-------------------------------------|
D|-------------------------------------|
A|-------------------------------------|
E|-------------------------------------|
 The FBI             Fuck me  
         The CIA             Fuck me the USA

Outro

  ___________ X3 ________    ________ X4 ________
 /                       \  /                    \
e|-------------------------|----------------------|
B|-------------------------|----------------------|
G|-------------------------|-------3--------6-----|
D|---10-10-10-9--6-66-66---|---333-3-3--666-6-6---| X2
A|---10-10-10-9--6-66-66---|---333-1-3--666-4-6---|
E|----8--8--8-7--4-44-44---|---111---1--444---4---|

Then just play

e|-----------------|
B|-----------------|
G|-----------------|
D|--10~~~~~~~~~~~--|
A|--10~~~~~~~~~~~--|
E|---8~~~~~~~~~~~--|



KEY:
~ Let ring




Listen to the song for the order and timing.

Alex Hill (darkspider.i@gmail.com)
Tap to rate this tab
# A B C D E F G H I J K L M N O P Q R S T U V W X Y Z