Song name
# A B C D E F G H I J K L M N O P Q R S T U V W X Y Z

There For Tomorrow - Icebox tab

this is a really easy intro, but i felt like tabbing it.
this is my  first tab too. soo please don't kill me for it if it's bad
email: jaqixjoyride@aol.com

e|----11----11----11----11---------|
B|--8-9---8-9---8-9---8-9----------|
D|---------------------------------|
G|---------------------------------|
A|---------------------------------|
E|---------------------------------|

e|-----10-----10-----10----8-6-8--|
B|---8-9---8-9---8-9--------------|
D|--------------------------------|
G|--------------------------------|
A|--------------------------------|
E|--------------------------------|

e|------6-------6-----------------|
B|---3-4-----3-4------------------|
D|--------------------------------|
G|--------------------------------|
A|--------------------------------|
E|--------------------------------|

and that repeats throught the whole song pretty much
except for the like chorus and stuff =]
Tap to rate this tab
# A B C D E F G H I J K L M N O P Q R S T U V W X Y Z