Song name
# A B C D E F G H I J K L M N O P Q R S T U V W X Y Z

There For Tomorrow - Pages tab

Tuning is Drop C#
This tab is mostly rhythm guitar with some lead parts. It's about 95% accurate, if you 
confused on some of the stroking patterns listen carefully to the song. Same with any 
parts, very easy song and fun.


INTRO LEAD GUITAR (0:00-0:08)

D#|-16-16-16-17-17-17-12-12-16-16-16-17-17-17-12-12-|
A#|-------------------------------------------------|
F#|-------------------------------------------------|  X 2
C#|-------------------------------------------------|
G#|-------------------------------------------------|
C#|-------------------------------------------------|

INTRO RHYTHM GUITAR (0:07-0:08)


D#|------------------------------------------------|
A#|------------------------------------------------|
F#|--------------------------6-6-6-6---6-6---------|
C#|--------------------------7-7-7-7---7-7---------|
G#|--------------------------9-9-9-9---9-9---------|
C#|------------------------------------------------|


lEAD GUITAR  (0:09-0:20)

                             x 3
D#|-16-16-16-17-17-17-12-12----|  |-9-9-9-9-12-12-12-12--|
A#|O--------------------------O|  |----------------------|
F#|----------------------------|  |----------------------| ALL OF THIS TWICE
C#|----------------------------|  |----------------------|
G#|O--------------------------O|  |----------------------|
C#|----------------------------|  |----------------------|


RHYTHM GUITAR  (0:09-0:20)

D#|----------------------------------------------------------------------------|
A#|----------------------------------------------------------------------------|
F#|-6666--66-666-666---9999--99--9-9-999---9999-99-999-999---7777-77--7-7-777--|
C#|-7777--77-777-777---7777--77--7-7-777---9999-99-999-999---7777-77--7-7-777--|
G#|-9999--99-999-999---9999--99--9-9-999---7777-77-777-777---0000-00--0-0-000--|
C#|----------------------------------------------------------0000-00--0-0-000--|

LEAD GUITAR FOR VERSE (0:21-0:43) Sustain these notes with a lot of reverb and with high shape.

D#|-12~~~~~~~~----------17~~16~~~~~----------------------------|
A#|-----------14~~~~~~~~-----------17~~~~~~~~~~~14~~~~~~~~~~~~~|
F#|------------------------------------------------------------| x 2
C#|------------------------------------------------------------|
G#|------------------------------------------------------------|
C#|------------------------------------------------------------|


LEAD GUITAR FOR PRECHORUS (0:44-0:54) REPEAT TWICE

D#|-------------------------------12-12-12-12-------------------------------------------|
A#|-------------------------------------------12-12-12----------------------------------|
F#|-11-11-11-13-13-13-14-14-14-14----------------------14-14-14-13-13-13-13-13-13-13-13-|
C#|-------------------------------------------------------------------------------------|
G#|-------------------------------------------------------------------------------------|
C#|-------------------------------------------------------------------------------------|


RHYTHM GUITAR FOR PRECHORUS (0:44-0:54)

D#|------------------------------------------|
A#|------------------------------------------|
F#|------------------------------------------|
C#|-0-------2-------0-------2----------------|
G#|-0-X16---2-X16---0-X16---2-X16------------|
C#|-0-------2-------0-------2----------------|

RHYTHM GUITAR FOR CHORUS (0:55-1:06)

D#|-------------------------------------------------------|
A#|-------------------------------------------------------|
F#|-------------------------------------------------------|
C#|-4------7------2222-22-222-222--0000-00-0-0-000--4~~~--|
G#|-4-X16--7-X16--2222-22-222-222--0000-00-0-0-000--4~~~--|
C#|-4------7------2222-22-222-222--0000-00-0-0-000--4~~~--|

LEAD GUITAR FOR CHORUS OUTRO (1:06-1:08)

D#|-9p7------------------------------|
A#|----9s10--------10p9--------------|
F#|--------9h11--------11p9----------|
C#|------------9h11--------11p9------|
G#|----------------------------------|
C#|----------------------------------|

For the second verse (1:09-1:32) I couldn't figure it out, there is some kind of 
and some rhythm guitar which was not very distinctive so you can use the first verse if you'd 
to.

PRECHORUS RHYTHM GUITAR (1:32-1:42)
Lead Guitar is still the same
as the first PreChorus

D#|----------------------------------------|
A#|----------------------------------------|
F#|----------------------------------------|
C#|-0------2------0------2-----------------|
G#|-0-x12--2-x12--0-x12--2-x16-------------|
C#|-0------2------0------2-----------------|


RHYTHM GUITAR FOR CHORUS (1:43-2:06)

D#|-------------------------------------------------------|
A#|-------------------------------------------------------|
F#|-------------------------------------------------------|
C#|-4------7------2222-22-222-222--0000-00-0-0-000--------|
G#|-4-X16--7-X16--2222-22-222-222--0000-00-0-0-000--------|
C#|-4------7------2222-22-222-222--0000-00-0-0-000--------|


D#|-------------------------------------------------------|
A#|-------------------------------------------------------|
F#|-------------------------------------------------------|
C#|-4------7------2222-22-222-222--0000-00-0-0-000--0~~~--|
G#|-4-X16--7-X16--2222-22-222-222--0000-00-0-0-000--0~~~--|
C#|-4------7------2222-22-222-222--0000-00-0-0-000--0~~~--|


BRIDGE LEAD GUITAR (2:07-2:18)

                             x 3
D#|-16-16-16-17-17-17-12-12----|  |-9-9-9-9-12-12-12-12--|
A#|O--------------------------O|  |----------------------|
F#|----------------------------|  |----------------------| ALL OF THIS TWICE
C#|----------------------------|  |----------------------|
G#|O--------------------------O|  |----------------------|
C#|----------------------------|  |----------------------|


BRIDGE RHYTHM GUITAR (2:07-2:18)

D#|------------------------------------------|
A#|------------------------------------------|
F#|------------------------------------------|
C#|-0~~~~~~2~~~~~~0~~~~~~2~~~~~~-------------|
G#|-0~~~~~~2~~~~~~0~~~~~~2~~~~~~-------------|
C#|-0~~~~~~2~~~~~~0~~~~~~2~~~~~~-------------|


RHYTHM GUITAR FOR (2:29-2:39)

D#|--------------------------------------|
A#|--------------------------------------|
F#|---------------7------9---------------|
C#|-4------7------7-X16--9-X16-----------|
G#|-4-X16--7-X16--5------7---------------|
C#|-4------7-----------------------------|


ENDING CHORUS RHYTHM GUITAR (2:41-3:06)


D#|-------------------------------------------------------|
A#|-------------------------------------------------------|
F#|-------------------------------------------------------|
C#|-4------7------2222-22-222-222--0000-00-0-0-000--------|
G#|-4-X16--7-X16--2222-22-222-222--0000-00-0-0-000--------|
C#|-4------7------2222-22-222-222--0000-00-0-0-000--------|


D#|-------------------------------------------------------|
A#|-------------------------------------------------------|
F#|-------------------------------------------------------|
C#|-4------7------2222-22-222-222--0000-00-0-0-000--0~~~--|
G#|-4-X16--7-X16--2222-22-222-222--0000-00-0-0-000--0~~~--|
C#|-4------7------2222-22-222-222--0000-00-0-0-000--0~~~--|


The ending effects are mostly feed back and swelling the volume on notes (hitting a note 
the knob volume down then bringing it up to produce a smooth sound) Any questions or 
feel free to email me at Paulgarrido@roadrunner.com
Tap to rate this tab
 
# A B C D E F G H I J K L M N O P Q R S T U V W X Y Z