Song name
# A B C D E F G H I J K L M N O P Q R S T U V W X Y Z

There For Tomorrow - Icebox tab

Based off jaqixjoyride's tab. I just felt there should be a small adjustment to make it 
more like the song. Just lightly play the D string.

e|-------11----11----11----11------|
B|---8-9---8-9---8-9---8-9---------|
D|-0-------------------------------|
G|---------------------------------|
A|---------------------------------|
E|---------------------------------|

e|------10-----10----10-----8-6-8--|
B|---8-9----8-9---8-9--------------|
D|-0-------------------------------|
G|---------------------------------|
A|---------------------------------|
E|---------------------------------|

e|------6------------6-------------|
B|---3-4----------3-4--------------|
D|-0------------0------------------|
G|---------------------------------|
A|---------------------------------|
E|---------------------------------|
Tap to rate this tab
# A B C D E F G H I J K L M N O P Q R S T U V W X Y Z