Song name
# A B C D E F G H I J K L M N O P Q R S T U V W X Y Z

There For Tomorrow - Waiting tab

Tuning: Drop D

E|------------------------------------------------------------|
B|------------------------------------------------------------|
G|------------------------------------------------------------|
D|--6--8--9------8--9-------------8--9------8--9---9/11-11----|
A|--6---------9---------9-9-9-9----------9---------7/9--9-----|
D|--6 6--6--6--6---6--6--------- 6--6--6--6---6--6------------|

E|------------------------------------------------------------|
B|------------------------------------------------------------|
G|------------------------------------------------11-9-8h9p8--|
D|--6--8--9------8--9-------------8--9------8--9--------------|
A|--6---------9---------9-9-9-9----------9--------------------|
D|--6 6--6--6--6---6--6--------- 6--6--6--6---6--6------------|

E|------------------------------------------------------------|
B|------------------------------------------------------------|
G|------------------------------------------------------------|
D|---8--9------8--9-------------8--9------8--9---9/11-11--6~~-|
A|----------9---------9-9-9-9----------9---------7/9--9---6~~-|
D|--6--6--6--6---6--6--------- 6--6--6--6---6--6----------6~~-|
Tap to rate this tab
# A B C D E F G H I J K L M N O P Q R S T U V W X Y Z