Song name
# A B C D E F G H I J K L M N O P Q R S T U V W X Y Z

There For Tomorrow - A Little Faster tab

-------------------------------------------------------------------------------
			     A Little Faster - There For Tomorrow
-------------------------------------------------------------------------------
Tabbed by: Izzy-M

Tuning: Drop Db

Listen to the song for timing.
I don't think it's completely right but it sounds good if you play along to the CD.
Any corrections please comment.

Guitar 1 - Christian
Guitar 2 - Maika

Guitar 1
eb|--9------9-12----------|
Bb|-------10------12-10---|
Gb|----11-----------------|
Db|-----------------------| X3
Ab|-----------------------|
Db|-----------------------|

eb|--9------9-----------|
Bb|-------10------------|
Gb|----11---------------|
Db|---------------------|
Ab|---------------------|
Db|---------------------|

Guitar 1 + 2
eb|-------------------------------------------|
Bb|-------------------------------------------|
Gb|-------------------444---------------------|
Db|--444-xxxx-777-000-444-xxxx-00000000-------|
Ab|--444-xxxx-777-000-222-xxxx-00000000-------|
Db|--444-xxxx-777-000-----xxxx-00000000-------|

Guitar 1
eb|--9------9-12----------|
Bb|-------10------12-10---|
Gb|----11-----------------|
Db|-----------------------| X3
Ab|-----------------------|
Db|-----------------------|

eb|--9------9-12-----------|
Bb|-------10------12-10----|
Gb|----11--------------10--|
Db|------------------------|
Ab|------------------------|
Db|------------------------|

Guitar 2
eb|-------------------------------------------|
Bb|-------------------------------------------|
Gb|-------------------444---------------------|
Db|--444-xxxx-777-000-444-xxxx-00000000-------|
Ab|--444-xxxx-777-000-222-xxxx-00000000-------|
Db|--444-xxxx-777-000-----xxxx-00000000-------|

Verse 1

Guitar 1
eb|---------------<5>-----------------------------------------------------|
Bb|---------------<5>-----------------------------------------------------|
Gb|---------------<5>-----------------------------------------------------|
Db|---------------<5>--4444444444444444-77777777-000000000000000000000000-|
Ab|---------------<5>--4444444444444444-77777777-000000000000000000000000-|
Db|--------------------4444444444444444-77777777-000000000000000000000000-|
PM                ..........................................................
Guitar 2
eb|-----------------------------------------------------------------------|
Bb|-----------------------------------------------------------------------|
Gb|-----------------------------------------------------------------------|
Db|--4----7---0--------4444444444444444-77777777-000000000000000000000000-|
Ab|--4X16-7X8-0X24-----4444444444444444-77777777-000000000000000000000000-|
Db|--4----7---0--------4444444444444444-77777777-000000000000000000000000-|
PM ........................................................................

Guitars 1 + 2
eb|------------------------------------------------|
Bb|------------------------------------------------|
Gb|------------------------------------------------|
Db|--44444444-77777777-0000000000000000-22222222-2-|
Ab|--44444444-77777777-0000000000000000-22222222-2-|
Db|--44444444-77777777-0000000000000000-22222222-2-|
PM  ............................................

Chorus

Guitars 1 + 2
eb|-------------------------------------------|
Bb|-------------------------------------------|
Gb|-------------------444---------------------|X2
Db|--444-xxxx-777-000-444-xxxx-22222222-------|
Ab|--444-xxxx-777-000-222-xxxx-22222222-------|
Db|--444-xxxx-777-000-----xxxx-22222222-------|

Guitar 1
eb|-----------------------------------|
Bb|-----------------------------------|
Gb|--111111-9-666666-7-111111-9-22222-|
Db|-----------------------------------|
Ab|--9-9-9--7-444444-7-9-9-9--7-44444-|
Db|-----------------------------------|

Guitar 2
eb|--------------------------------------|
Bb|--------------------------------------|
Gb|--------------------------------------|
Db|--44444444-77777777-0000000000000000--|
Ab|--44444444-77777777-0000000000000000--|
Db|--44444444-77777777-0000000000000000--|

Guitars 1 + 2
eb|--------------------------------------|
Bb|--------------------------------------|
Gb|-------------------444----------------|
Db|--444-xxxx-777-000-444-xxxx-2-2-------|
Ab|--444-xxxx-777-000-222-xxxx-2-2-------|
Db|--444-xxxx-777-000-----xxxx-2-2-------|


Guitar 1
eb|--9------9-12----------|
Bb|-------10------12-10---|
Gb|----11-----------------|
Db|-----------------------| X2
Ab|-----------------------|
Db|-----------------------|

Verse 2

Guitar 1 ( i'm sure this isn't right but it sounds ok when i play along with the cd)
eb|-------------------------------------------------------------|
Bb|-------------------------------------------------------------|
Gb|--14-13-11--14-13---1111-1111-1313-1313--1111-1111-1313-13---|
Db|-------------------------------------------------------------|
Ab|--12-11-9---12-11---9-9--9-9--1111-1111--9-9--9-9--1111-11---|
Db|-------------------------------------------------------------|

Guitar 2
eb|----------------------------------------------------------------------|
Bb|----------------------------------------------------------------------|
Gb|----------------------------------------------------------------------|
Db|-------------------4444444444444444-77777777-000000000000000000000000-|
Ab|-------------------4444444444444444-77777777-000000000000000000000000-|
Db|-------------------4444444444444444-77777777-000000000000000000000000-|
 PM                 .............................................................

eb|------------------------------------------------|
Bb|------------------------------------------------|
Gb|------------------------------------------------|
Db|--44444444-77777777-0000000000000000-22222222-2-|
Ab|--44444444-77777777-0000000000000000-22222222-2-|
Db|--44444444-77777777-0000000000000000-22222222-2-|
PM  ............................................

Chorus

Guitars 1 + 2
eb|-------------------------------------------|
Bb|-------------------------------------------|
Gb|-------------------444---------------------|X2
Db|--444-xxxx-777-000-444-xxxx-22222222-------|
Ab|--444-xxxx-777-000-222-xxxx-22222222-------|
Db|--444-xxxx-777-000-----xxxx-22222222-------|

Guitar 1
eb|-----------------------------------|
Bb|-----------------------------------|
Gb|--111111-9-666666-7-111111-9-22222-|
Db|-----------------------------------|
Ab|--9-9-9--7-444444-7-9-9-9--7-44444-|
Db|-----------------------------------|

Guitar 2
eb|--------------------------------------|
Bb|--------------------------------------|
Gb|--------------------------------------|
Db|--44444444-77777777-0000000000000000--|
Ab|--44444444-77777777-0000000000000000--|
Db|--44444444-77777777-0000000000000000--|

Guitars 1 + 2
eb|--------------------------------------|
Bb|--------------------------------------|
Gb|-------------------444----------------|
Db|--444-xxxx-777-000-444-xxxx-2-2-------|
Ab|--444-xxxx-777-000-222-xxxx-2-2-------|
Db|--444-xxxx-777-000-----xxxx-2-2-------|


eb|--121212-99-------------9--------9--------------------|
Bb|------------------------------------------------------|
Gb|------------11~-11-9-11--11-9-11--11-9-11/14-13-9-11~-|
Db|------------------------------------------------------|
Ab|------------------------------------------------------|
Db|------------------------------------------------------|

Guitar 1
eb|---------------------------------------|
Bb|--9------9----------------10-14-9-12---|
Gb|---9------9------9-6-------------------|X2
Db|---------------------------------------|
Ab|---------------------------------------|
Db|---------------------------------------|

Guitar 2
eb|----------------------------------------------------|
Bb|----------------------------------------------------|
Gb|--9999999999999999-11111111111111111111111111111111-|
Db|----------------------------------------------------|
Ab|--7777777777777777-9-9-9-9-9-9-9-9-9-9-9-9-9-9-9-9--|
Db|----------------------------------------------------|

eb|-----------------------------------------------------|
Bb|-----------------------------------------------------|
Gb|--9999999999999999-1414141414141414-1313131313131313-|
Db|-----------------------------------------------------|
Ab|--7777777777777777-1212121212121212-1111111111111111-|
Db|-----------------------------------------------------|

eb|----------------------------------------------------|
Bb|----------------------------------------------------|
Gb|--9999999999999999-11111111111111111111111111111111-|
Db|----------------------------------------------------|
Ab|--7777777777777777-9-9-9-9-9-9-9-9-9-9-9-9-9-9-9-9--|
Db|----------------------------------------------------|

eb|----------------------------------------------------|
Bb|----------------------------------------------------|
Gb|9999999999999999-1414141414141414-1616161616161616--|
Db|----------------------------------------------------|
Ab|7777777777777777-1212121212121212-1414141414141414--|
Db|----------------------------------------------------|


Chorus

Guitar 1
eb|--9------9-12----------|
Bb|-------10------12-10---|
Gb|----11-----------------|
Db|-----------------------| X3
Ab|-----------------------|
Db|-----------------------|

eb|--9------9-12-----------|
Bb|-------10------12-10----|
Gb|----11--------------10--|
Db|------------------------|
Ab|------------------------|
Db|------------------------|

Guitar 2
eb|-----------------------------------------|
Bb|-----------------------------------------|
Gb|-----------------------------------------|
Db|--4-------------------------44444444-----|
Ab|--4-------------------------44444444-----|
Db|--4-------------------------44444444-----|

Guitars 1 + 2
eb|-------------------------------------------|
Bb|-------------------------------------------|
Gb|-------------------444---------------------|
Db|--444-xxxx-777-000-444-xxxx-22222222-------|
Ab|--444-xxxx-777-000-222-xxxx-22222222-------|
Db|--444-xxxx-777-000-----xxxx-22222222-------|

Guitar 1
eb|-----------------------------------|
Bb|-----------------------------------|
Gb|--111111-9-666666-7-111111-9-22222-|
Db|-----------------------------------|
Ab|--9-9-9--7-444444-7-9-9-9--7-44444-|
Db|-----------------------------------|

Guitar 2
eb|--------------------------------------|
Bb|--------------------------------------|
Gb|--------------------------------------|
Db|--44444444-77777777-0000000000000000--|
Ab|--44444444-77777777-0000000000000000--|
Db|--44444444-77777777-0000000000000000--|

Guitars 1 + 2
eb|--------------------------------------|
Bb|--------------------------------------|
Gb|-------------------444----------------|
Db|--444-xxxx-777-000-444-xxxx-2-2-------|
Ab|--444-xxxx-777-000-222-xxxx-2-2-------|
Db|--444-xxxx-777-000-----xxxx-2-2-------|
Tap to rate this tab
 
# A B C D E F G H I J K L M N O P Q R S T U V W X Y Z