Song name
# A B C D E F G H I J K L M N O P Q R S T U V W X Y Z

There For Tomorrow - Burn The Night Away tab

-------------------------------------------------------------------------------
			     Burn The Night Away - Devious3144
-------------------------------------------------------------------------------
Tabbed by: Samuel (devious3144)
Email: a.t.wasted@hotmail.co.uk

Tuning:Eb,Ab,Db,Gb,Bb,Eb

INTRO/VERSE
|---------------------------------------------------------------------------|
|--8-x-8--8-x-8---7-x-7--7-x-7---12-x-12---10-x-10--------------------------|
|--9-x-9--9-x-9---7-x-7--7-x-7---12-x-12---11-x-11--------------------------|x3
|----x------x-------x------x--------x---------x--------10-x-10--10-x-10-----|
|-7--x---7--x----5--x---5--x----10--x-----9---x--------10-x-10--10-x-10-----|
|-----------------------------------------------------8---x----8---x--------|

|---------------------------------------------------0~----------------------|
|-7-x-7----8-x-8---5-x-5---5-x-5---7-x-7---8-x-8----5~----------------------|
|-7-x-7----9-x-9---5-x-5---5-x-5---7-x-7---9-x-9----5~----------------------|
|---x--------x-------x-------x-------x-------x------5~----------------------|
|5--x-----7--x----3--x----3--x----5--x----7--x------3~----------------------|
|---------------------------------------------------------------------------|

CHORUS
|-0-------------------0--------------0---0------0----0------------0----0------------0--|
|-0-------------------0--------------0---0------0----0------------0----0------------0--|
|-4-------------------7-77777777777777---9-999999----0------------0----9--9-9-9-9-9-9--|
|-5-5555555555-4444---7-77777777777777---9-999999---12-121212121212---10-101010101010--|
|-5-5555555555-5555---5-55555555555555---7-777777---12-101212121212---10-101010101010--|
|-3-3333333333-2222---------------------------------10-101010101010----8--8-8-8-8-8-8--|
  pm********** ****     *************      *****       * * * * *          * * * * *

|--0------------0-----------0~-------------------------------0~--------------------------|
|--0------------0-------0---0~---------------------------0---0~--------------------------|
|--0------------0--------0--9~----------------------------0--9~--------------------------|
|-12-121212121212----------10~------------------------------10~--------------------------|
|-12-121212121212------9---10~--------------------------9---10~--------------------------|
|-10-101010101010---/10-----8~---(tap tap-tap tap)---/10-----8~---(tap tap-tap tap)------|
   pm * * * * *


VERSE
|----------------------------------------------------------------------------|
|--8-x-8--8-x-8---7-x-7--7-x-7---12-x-12---10-x-10---------------------------|
|--9-x-9--9-x-9---7-x-7--7-x-7---12-x-12---11-x-11---------------------------|x2
|----x------x-------x------x--------x---------x--------10-x-10--10-x-10------|
|-7--x---7--x----5--x---5--x----10--x-----9---x--------10-x-10--10-x-10------|
|-----------------------------------------------------8---x----8---x---------|

|---------------------------------------------------0~----------------------|
|-7-x-7----8-x-8---5-x-5---5-x-5---7-x-7---8-x-8----5~----------------------|
|-7-x-7----9-x-9---5-x-5---5-x-5---7-x-7---9-x-9----5~----------------------|
|---x--------x-------x-------x-------x-------x------5~----------------------|
|5--x-----7--x----3--x----3--x----5--x----7--x------3~----------------------|
|---------------------------------------------------------------------------|

CHORUS !!!You can work out the open string strum by listening to the original cd!!!
|----------------------------------------------------------------------------------------|
|----------------------------------------------------------------------------------------|
|-444444444444--------7777777777777777---99999999-----------------------9-9-9-9-9-9-9-9--|
|-555555555555-4444---5777777777777777---99999999---1212121212121212---1010101010101010--| 
|-555555555555-5555---5555555555555555---77777777---1212101212121212---1010101010101010--|
|-333333333333-2222---------------------------------1010101010101010----8-8-8-8-8-8-8-8--|
 

|---------------------------------------------------------------------------------------------|
|---------------------------------------------------------------------------------------------|
|----------------------------------------------------------9-9-9-9-9-9-9-9--------------------|
|-12121212--13131313--1414141414141414--1212121212121212--1010101010101010--1212121212121212--| 
|-12121212--14141414--1414141414141414--1212121212121212--1010101010101010--1212121212121212--|
|-10101010--11111111--1212121212121212--1010101010101010---8-8-8-8-8-8-8-8--1010101010101010--|

|----------0-----------------------------0----------------------------------------|
|-----0----0------------------------0----0----------------------------------------|
|------0---9-------------------------0---9----------------------------------------|
|---------10--1010101010101010----------10--1010101010101010---1212121212121212---|
|----9----10--1010101010101010-----9----10--1010101010101010---1212121212121212---|
|-/10------8---8-8-8-8-8-8-8-8--/10------8---8-8-8-8-8-8-8-8---1010101010101010---|
            pm * * * * * *                   * * * * * *

INTERLUDE
|--0-0-0-0-0-0-0-0----0-0-0-0-0-0-0-0-0----0-0-0-0-0-0-0-0----0-0-0-0-0-0-0-0----|
|--0-0-0-0-0-0-0-0----0-0-0-0-0-0-0-0-0----0-0-0-0-0-0-0-0----0-0-0-0-0-0-0-0----|
|--0-0-0-0-0-0-0-0----0-0-0-0-0-0-0-0-0----0-0-0-0-0-0-0-0----0-0-0-0-0-0-0-0----|
|-1414141414141414---131313131313131313---1212121212121212---1111111111111111----|
|-1414141414141414---141414141414141414---1212121212121212---1212121212121212----|
|-1212121212121212---111111111111111111---1010101010101010----9-9-9-9-9-9-9-9----|

|--0-0-0-0-0-0-0-0-0-0-0-0-0-0-0-0-------------------------------------------------|
|--0-0-0-0-0-0-0-0-0-0-0-0-0-0-0-0-------------------------------------------------|
|--9-9-9-9-9-9-9-9-9-9-9-9-9-9-9-9-------------------------------------------------|
|-10101010101010101010101010101010--1212121212121212121212121212-------------------|
|-10101010101010101010101010101010--1212121212121212121212121212-------------------|
|--8-8-8-8-8-8-8-8-8-8-8-8-8-8-8-8--1010101010101010101010101010-------------------|
pm                                 -* * * * * * * *

CHORUS
|----------------------------------------------------------------------------------------|
|----------------------------------------------------------------------------------------|
|-444444444444--------7777777777777777---99999999-----------------------9-9-9-9-9-9-9-9--|
|-555555555555-4444---5777777777777777---99999999---1212121212121212---1010101010101010--|
|-555555555555-5555---5555555555555555---77777777---1212101212121212---1010101010101010--|
|-333333333333-2222---------------------------------1010101010101010----8-8-8-8-8-8-8-8--|
 

|--------------------------------------------------------------------------------|
|--------------------------------------------------------------------------------|
|--------------------------------------------------------------9-9-9-9-9-9-9-9---|
|-12121212---13131313---1414141414141414---1212121212121212---1010101010101010---|
|-12121212---14141414---1414141414141414---1212121212121212---1010101010101010---|
|-10101010---11111111---1212121212121212---1010101010101010----8-8-8-8-8-8-8-8---|


|----------------------------0~-------------------------------0~--------------------------|
|------------------------0---0~---------------------------0---0~--------------------------|
|-------------------------0--9~----------------------------0--9~--------------------------|
|-1212121212121212----------10~------------------------------10~--------------------------| 
|-1212121212121212------9---10~--------------------------9---10~--------------------------|
|-1010101010101010---/10-----8~---(tap tap-tap tap)---/10-----8~--------------------------|
   
Finished :)

| /  slide up
| \  slide down
| h  hammer-on
| p  pull-off
| ~  vibrato
| +  harmonic
| x  Mute note
===============================================================================
Tap to rate this tab
 
# A B C D E F G H I J K L M N O P Q R S T U V W X Y Z