Song name
# A B C D E F G H I J K L M N O P Q R S T U V W X Y Z

There For Tomorrow - Backbone tab

-----------------------------------------------------------------------------
                          There For Tomorrow - Backbone
-----------------------------------------------------------------------------
Tabbed by: mwdent
Email: dentmatt@live.com

Tuning: Standard


Intro

e|------------------------------| 
B|------------------------------|
G|-----4------4-----4--6h8p6-4--|
D|------------------------------|
A|------------------------------|
E|--4----4--4----4--------------|

e|----------------------| 
B|----------------------|
G|-----4------4-----4\--|
D|----------------------|
A|----------------------|        
E|--4----4--4----4------|


Verse 1

e|------------------------------| 
B|------------------------------| x3
G|-----4------4-----4--6h8p6-4--|
D|------------------------------|
A|------------------------------|
E|--4----4--4----4--------------|

e|------------------| 
B|------------------|
G|-----4------4--4--|
D|------------------|
A|------------------|
E|--4----4--4-------|


Pre-Chorus

e|---------|
B|---------|
G|---------|
D|--4-4-4--|
A|--4-4-4--|
E|--2-2-2--|

e|-----------------------------------------------------|
B|-----------------------------------------------------|
G|-----------------------------9-9-9-9-12-12-12-12-15--|
D|--2-(x16)--4-(x16)--2-(x16)--x-x-x-x--x--x--x--x--x--|
A|--2--------4--------2--------7-7-7-7-10-10-10-10-13--|
E|--0--------2--------0--------------------------------|


Chorus

e|-----------------------------------------------------------------------|
B|-----------------------------------------------------------------------| x2
G|----------------------------4-4-x-x------------------------------------|
D|--6-6-x-x-x-x-x-x--6-6-x-x--4-4-x-x--4-4-x-x-x-x-x-x--2-2-x-x-x-x-x-x--|
A|--6-6-x-x-x-x-x-x--6-6-x-x--2-2-x-x--4-4-x-x-x-x-x-x--2-2-x-x-x-x-x-x--|
E|--4-4-x-x-x-x-x-x--4-4-x-x-----------2-2-x-x-x-x-x-x--0-0-x-x-x-x-x-x--|
    
e|------------------------------------------------|
B|------------------------------------------------|
G|--------------------------9-9-9-9--10--10--10\--|
D|--4--4-4--4-4-4--6-6-6-6--x-x-x-x---x---x---x\--|
A|--4--4-4--4-4-4--6-6-6-6--7-7-7-7---8---8---8\--|
E|--2--2-2--2-2-2--4-4-4-4------------------------|


To Verse 2

e|------------------------------| 
B|------------------------------|
G|-----4------4-----4--6h8p6-4--|
D|------------------------------|
A|------------------------------|
E|--4----4--4----4--------------|

e|----------------------| 
B|----------------------|
G|-----4------4-----4\--|
D|----------------------|
A|----------------------|
E|--4----4--4-----------|


Verse 2

e|----------------------------------------|
B|----------------------------------------|
G|----------------------------------------|
D|--2-(x24)--4-(x8)--6-(x16)--8-(x8)--8\--|
A|--2--------4-------6--------8-------8\--|
E|--0--------2-------4--------6-------6\--|
pm  *        *       *        *       


Pre-Chorus

e|---------|
B|---------|
G|---------|
D|--4-4-4--|
A|--4-4-4--|
E|--2-2-2--|

e|-----------------------------------------------------------------------|
B|-----------------------------------------------------------------------|
G|-----------------------------------------------9-9-9-9-12-12-12-12-15--|
D|--2-x-x--2-(x9)--4-x-x--4-(x9)--2-x-x--2-(x9)--x-x-x-x--x--x--x--x--x--|
A|--2-x-x--2-------4-x-x--4-------2-x-x--2-------7-7-7-7-10-10-10-10-13--|
E|--0-x-x--0-------2-x-x--2-------0-x-x--0-------------------------------|


Chorus

e|-----------------------------------------------------------------------|
B|-----------------------------------------------------------------------| x2
G|----------------------------4-4-x-x------------------------------------|
D|--6-6-x-x-x-x-x-x--6-6-x-x--4-4-x-x--4-4-x-x-x-x-x-x--2-2-x-x-x-x-x-x--|
A|--6-6-x-x-x-x-x-x--6-6-x-x--2-2-x-x--4-4-x-x-x-x-x-x--2-2-x-x-x-x-x-x--|
E|--4-4-x-x-x-x-x-x--4-4-x-x-----------2-2-x-x-x-x-x-x--0-0-x-x-x-x-x-x--|
    
e|------------------------------------------------|
B|------------------------------------------------|
G|--------------------------9-9-9-9--10--10--10\--|
D|--4--4-4--4-4-4--6-6-6-6--x-x-x-x---x---x---x\--|
A|--4--4-4--4-4-4--6-6-6-6--7-7-7-7---8---8---8\--|
E|--2--2-2--2-2-2--4-4-4-4------------------------|
 
I could not figure out the little interlude played here.

e|-----------------------------|
B|-----------------------------|
G|-----------------------------|
D|-----4------4----4----4---4--|
A|-----------------------------|
E|--3----3--3----3----3---3----|
pm               *    *   *

e|-----------------------------|
B|-----------------------------|
G|-----------------------------|
D|-----4------4----4----4---4--|
A|-----------------------------|
E|--4----4--4----4----4---4----|
pm               *    *   *

e|------------------------------| 
B|------------------------------|
G|-----4------4-----4--6h8p6-4--|
D|------------------------------|
A|------------------------------|
E|--4----4--4----4--------------|

e|-------------------| 
B|-------------------|
G|-----6------6--6\--|
D|-------------------|
A|-------------------|
E|--6----6--6--------|


Chorus

e|-----------------------------------------------------------------------|
B|-----------------------------------------------------------------------| 
G|----------------------------4-4-x-x------------------------------------|
D|--6-6-x-x-x-x-x-x--6-6-x-x--4-4-x-x--4-4-x-x-x-x-x-x--2-2-x-x-x-x-x-x--|
A|--6-6-x-x-x-x-x-x--6-6-x-x--2-2-x-x--4-4-x-x-x-x-x-x--2-2-x-x-x-x-x-x--|
E|--4-4-x-x-x-x-x-x--4-4-x-x-----------2-2-x-x-x-x-x-x--0-0-x-x-x-x-x-x--|

e|---------------------------------------------------------|
B|---------------------------------------------------------| 
G|----------------------------4-4-x-x----------------------|
D|--6-6-x-x-x-x-x-x--6-6-x-x--4-4-x-x--4-4-x-x-x-x-x-x--2--|
A|--6-6-x-x-x-x-x-x--6-6-x-x--2-2-x-x--4-4-x-x-x-x-x-x--2--|
E|--4-4-x-x-x-x-x-x--4-4-x-x-----------2-2-x-x-x-x-x-x--0--|

e|----------------------------------------------------|
B|----------------------------------------------------|
G|--------------------------9-(x4)--10-(x8)--12-(x8)--|
D|--4--4-4--4-4-4--6-6-6-6--x--------x--------x-------|
A|--4--4-4--4-4-4--6-6-6-6--7--------8-------10-------|
E|--2--2-2--2-2-2--4-4-4-4----------------------------|


Outro

Guitar 1
e|-----------|
B|-----------| x6
G|--7/9-9-9--|
D|--x/x-x-x--|
A|--5/7-7-7--|
E|-----------|

e|--------------------------|
B|--------------------------|
G|--7/12-12-12-12-12-12-12--|
D|--x/-x--x--x--x--x--x--x--|
A|--5/12-12-12-12-12-12-12--|
E|--------------------------|

e|-----------|
B|-----------| x4
G|--7/9-9-9--|
D|--x/x-x-x--|
A|--5/7-7-7--|
E|-----------|

e|-------------|
B|-------------|
G|--10-10-10\--|
D|---x--x--x\--|
A|---8--8--8\--|
E|-------------|


Guitar 2
e|-------------------------------------|
B|-------------------------------------|
G|-------------------------------------|
D|--2-(x16)--4-(x16)--2-(x16)--4-4-4\--|
A|--2--------4--------2--------4-4-4\--|
E|--0--------2--------0--------2-2-2\--|

I also could not figure out the last chord that is strummed at the end.

************************************

| /   slide up
| \   slide down
| h   hammer-on
| p   pull-off
| ~   vibrato
| +   harmonic
| x   Mute note
| b   Bend
| pb  Pre-bend
| br  Bend release
| pbr Pre-bend release
| brb Bend release bend
| pm  Palm mute

************************************
Tap to rate this tab
 
# A B C D E F G H I J K L M N O P Q R S T U V W X Y Z