Song name
# A B C D E F G H I J K L M N O P Q R S T U V W X Y Z

There For Tomorrow - The Joyride tab

First Tab!
hope you guys like it, and hope i didnt make any mistakes.
the whole thing was tabbed out by ear.
Artist:There for Tomorrow
Album: The Verge
Song: The Joyride

Rhythm Guitar: Intro 
eb|-------------------|  |-------------------|  |--------------------|
Bb|-------------------|  |-----------7--7--7-|  |--------------------|
Gb|-------------------|  |-----------7--7--7-|  |-77777777-66666666--|
Db|-777-999-555555555-|X4|777-999-555555555-|X3|-77777777-66666666--|X1
Ab|-777-999-555555555-|  |777-999-555555555-|  |-55555555-44444444--|
Db|-777-999-555555555-|  |-777-999-555555555-|  |--------------------|

Verse 
eb|-------------------|  |----------|
Bb|-------------------|  |----------|
Gb|-------------------|  |-77777777-|
Db|-777-999-555555555-|  |-77777777-|X3
Ab|-777-999-555555555-|X7|-55555555-| 
Db|-777-999-555555555-|  |----------|

Chorus
eb|-------------------|  |------------------|
Bb|-------------------|  |------------------|
Gb|-------------------|  |-77777777-66666666|
Db|-777-999-555555555-|X3|-77777777-66666666|X1
Ab|-777-999-555555555-|  |-55555555-44444444|
Db|-777-999-555555555-|  |------------------|

Verse
Chorus

Bridge                               
eb|------------------------|
Bb|------------------------|
Gb|----5h7p5---------------|
Db|------------4h5p4h5p4p0-|
Ab|-555-----555------------|
Db|------------------------|
So sorry i couldn't quite figure
out the second part of the bridge. :/

Verse

Pre-Chorus
eb|----------|
Bb|----------|
Gb|-77777777-|
Db|-77777777-|X7
Ab|-55555555-|
Db|----------|

Chorus

Outro
eb|---|
Bb|---|
Gb|-7-|
Db|-7-|X4
Ab|-5-|
Db|---|
Tap to rate this tab
# A B C D E F G H I J K L M N O P Q R S T U V W X Y Z