Song name
# A B C D E F G H I J K L M N O P Q R S T U V W X Y Z

There For Tomorrow - Nowhere Blvd tab

                                                                             NOWHERE BLVD.
                                                                  Drop C# (C# G# C# F# A# D#)


This is my first attempt at tabbing something and I think I did a pretty good job for a 
first timer. Tuning is drop C sharp or Db Ab Db Gb Bb Eb.


Guitar 1: Maika Maile (Db Ab Db Gb Bb Eb)
Guitar 2: Christian Climer (Db Ab Db Gb Bb Eb)


Intro/verse.

Guitar 1

   (8) <- you can add this note on the first string during the first & last chords.
D|-------------------------------------------------------|
A|--10------5------6------10-------10--------------------|
F|---9------4------7-------9--------9--------------------| (x2)
C|--10------5------7------10-------10--------------------|
G|----------3------5-------8-----------------------------|
C|-------------------------------------------------------|




Chorus.

Guitar 1
D|----------------------------------------------------------------|
A|----------------------------------------------------------------|
F|----------------------------------------------------------------|
C|--3---0---7---9---3---0---7---9---3---2---0---------------------|
G|--3---0---7---5---3---0---7---5---3---2---0---------------------|
C|--3---0---7---5---3---0---7---5---3---2---0---------------------|




Post Chorus.

Guitar 1
D|--------|
A|--10----|
F|---9----| x 16 times or 8 measures if you count in measures.
C|--10----|
G|--------|
C|--------|


Verse 2.

Guitar 2:

D|--12-------------------------12-----------------------------------------------|
A|----10--------------------------10-----13--12---------------------------------|
F|------12~--------------------------12-----------------------------------------|
C|------------------------------------------------------------------------------|
G|------------------------------------------------------------------------------|
C|------------------------------------------------------------------------------|

You will start by playing the first 3 notes 4 times and then on the fifth time
You will play all 5 notes two times, then play the first 3 notes again
As soon as he says Hope to win over all the promises play all 5 notes over and over.



Guitar 1 starts when he says "Hope to win over all the promises" and plays the intro again.

D|-------------------------------------------------------|
A|--10------5------6------10-------10--------------------|
F|---9------4------7-------9--------9--------------------|
C|--10------5------7------10-------10--------------------|
G|----------3------5-------8-----------------------------|
C|-------------------------------------------------------|



Repeat Chorus.


D|-----------------------------------------|
A|-----------------------------------------|
F|-----------------------------------------|
C|--3---0---7---9---3---0---7---9---3------|
G|--3---0---7---5---3---0---7---5---3------|
C|--3---0---7---5---3---0---7---5---3------|




Solo is still a work in progress, I've split it in different parts for better learning.
Its mainly up and down strums but in triplets or something
I don't really know how to explain it, just listen to the song and you'll see what I mean.

Guitar 2.
Part 1

D|------------------------------------------------------------------|
A|------------------------------------------------------------------|
F|------------------------------------------------------------------|
C|------------------------------------------------------------------|
G|------------3------------------3----------------------------------|
C|---7--5--7------------7--5--7------------0-0-0-0-0----------------|


Part 2

D|------------------------------------------------------------------|
A|------------------------------------------------------------------|
F|------------------------------------------------------------------|
C|------------------------------------------------------------------|
G|------------------------------------------------------------------|
C|---10--8--10/14--------10--8--10/14------0-0-0-0-0----------------|


Part 3

D|---------------------------------------------------------------------|
A|---------------------------------------------------------------------|
F|---------------------------------------------------------------------|
C|------------------------------------5----------5---------------------|
G|---------------------------------------------------------------------|
C|--12--12--0--12--12--0--------3--3-------3--3------------------------|

After the last note you play you are gonna play part 1 again BUT this time without the zeros
Rest 1 measure before going straight to part 4


Part 4.

D|-------------------------------------------------------------------------|
A|-------------------------------------------------------------------------|
F|-------------------------------------------------------------------------|
C|-------------------------------------------------------------------------|
G|------------3------------------3/7777\3----------------------------------|
C|---7--5--7------------7--5--7--------------------------------------------|




Part 5.

D|------------------------------------------------------------------|
A|------------------------------------------------------------------|
F|------------------------------------------------------------------|
C|------------------------------------------------------------------|
G|------------------------------------------------------------------|
C|---10--8--10/14--------10--8--10/14\10101010----------------------|
                                These are tens !!



Part 6 is exactly as part 3 except you will play the zeros a lot faster

D|---------------------------------------------------------------------|
A|---------------------------------------------------------------------|
F|---------------------------------------------------------------------|
C|------------------------------------5----------5---------------------|
G|---------------------------------------------------------------------|
C|--12--12--0--12--12--0--------3--3-------3--3------------------------|




Guitar 1 solo comes in as part 3 is ending and is pretty much all fast paced alternate 
picking. I highly recommend using a lot of reverb.



D|-10/17\1---------8--7-----------5------------------------------------|
A|-----------------------8--5--8---------------------------------------|
F|---------------------------------------------------------------------|
C|---------------------------------------------------------------------|
G|---------------------------------------------------------------------|
C|---------------------------------------------------------------------|



Post Solo

Guitar 1:
Play this when he says Theres no more time to MAKE. I recommend using your neck pickup 
to make it sound all soft and clean.

D|--12----------------------------------------------|
A|----10----13--12----------------------------------|
F|------12------------------------------------------|
C|--------------------------------------------------|
G|--------------------------------------------------|
C|--------------------------------------------------|


Final chorus is played a bunch of times.

D|---------------------------------------------------------|
A|---------------------------------------------------------|
F|---------------------------------------------------------|
C|--3---0---7---9---3---0---7---9---3----------------------|
G|--3---0---7---5---3---0---7---5---3----------------------|
C|--3---0---7---5---3---0---7---5---3----------------------|
Tap to rate this tab
 
# A B C D E F G H I J K L M N O P Q R S T U V W X Y Z