Song name
# A B C D E F G H I J K L M N O P Q R S T U V W X Y Z

Therefore I Am - I Get Nervous In Cars tab

INTRO
E---------------------------------------------|
B---------------------------------------------|
G---------------------------------------------|
D--------8---8^9------8---8^9------8^9--------|
A---------------------------------------------|
D-0-0-----0------0-0----0-------0-0-----------|


Chord Progression

E--------------------------------------|
B--------------------------------------|
G-----11-------------------------------|
D-----11 X16-- 9--------11-------6-----|
A------9-------9--X8----11 X8 ---6-----|X8
D--------------9--------11-------6-----|

Outro

First Part
E---------------------------------------|
B--0-2-0-4-0-2-0-4-0-2-0-4-0-22---------|
G---------------------------------------|
D---------------------------------------|
A---------------------------------------|
D---------------------------------------|

Second Part

E---------------------------------------|
B--4-4^7 7^4----------------------------|
G----------------4-4-4^6^4/3------------|
D---------------------------------4-6---|
A---------------------------------------|
D---------------------------------------|


^ hammer-on or pull off
/slide

http://www.myspace.com/thereforeiam
Tap to rate this tab
# A B C D E F G H I J K L M N O P Q R S T U V W X Y Z