Song name
# A B C D E F G H I J K L M N O P Q R S T U V W X Y Z

Therefore I Am - I Get Nervous In Cars tab

----------------------------------------------------------------------------
Band: Therefore I Am
Track: I Get Nervous In Cars
Album: You Are Connected
-----------------------------------------------------------------------------
Tabbed by:3lacksabbath81


Tuning:Drop D
  PM............................................
e|-----------------------|----------------------|
B|-----------------------|----------------------|
G|-----------------------|----------------------|
D|--------9----9-10------|-9----9-10-------9-10-|
A|--12-12---12------12-12|---12------12-12------|
D|-----------------------|----------------------|
  PM...................................
e|-------------------|-----------------|
B|-------------------|-----------------|
G|------7---7-9------|-7---7-9-----7-9-|
D|-------------------|-----------------|
A|--0-0---0-----0-0--|---0-----0-0-----|
D|-------------------|-----------------|
Tap to rate this tab
# A B C D E F G H I J K L M N O P Q R S T U V W X Y Z