Song name
# A B C D E F G H I J K L M N O P Q R S T U V W X Y Z

Therion - Invocation Of Naamah tab

I've been posting some Therion tabs here on UG hoping some people would check out this
band and help them to learn their stuff. i hope you enjoy this tab. again the original
was done by the following person. thank and ask him for questions regarding this tab. 
- leandrobrazao@ig.com.br
have fun.

Intro
|---------------------------------|
|---------------------------------|
|---------------------------------|
|-----5-------4-------7-----5---7-|
|---7---7---6---6---9---9-7---9---|
|-0-------0-------0---------------|

|----------------------------------------------------------------------------|
|----------------------------------------------------------------------------|
|----------------------------------------------------------------------------|
|----------------------------------------------------------------------------|
|-2--------------------------------------------------------------------------|
|-0----------------------------------------------------------------------10\-|
|                                                                            |
|------------------|------------------|------------------|-------------------|
|------------------|------------------|------------------|-------------------|
|------------------|------------------|------------------|-------------------|
|-5------5------55-|-4------4------44-|-7------7------77-|-5------5------55--|
|-7-7777-7-7777-77-|-6-6666-6-6666-66-|-9-9999-9-9999-99-|-7-7777-7-7777-77--|
|------------------|------------------|------------------|-------------------|

|------------------|------------------|------------------|------------------|
|------------------|------------------|------------------|------------------|
|------------------|------------------|------------------|------------------|
|-5------5------55-|-4------4------44-|-7------7------77-|-5------5------55-|
|-7-7777-7-7777-77-|-6-6666-6-6666-66-|-9-9999-9-9999-99-|-7-7777-7-7777-77-|
|------------------|------------------|------------------|------------------|

Verse
|------------------|------------------|------------------|------------------|
|------------------|------------------|------------------|------------------|
|------------------|------------------|------------------|------------------|
|-5------5------55-|-4------4------44-|-7------7------77-|-5------5------55-|
|-7-7777-7-7777-77-|-6-6666-6-6666-66-|-9-9999-9-9999-99-|-7-7777-7-7777-77-|
|------------------|------------------|------------------|------------------|

|------------------|------------------|------------------|------------------|
|------------------|------------------|------------------|------------------|
|------------------|------------------|------------------|------------------|
|-5------5------55-|-4------4------44-|-5------7------44-|-5------5------55-|
|-7-7777-7-7777-77-|-6-6666-6-6666-66-|-7-7777-9-9999-66-|-7-7777-7-7777-77-|
|------------------|------------------|------------------|------------------|

Chorus
|---------------------------------|-------------------------------|
|---------------------------------|-------------------------------|
|---------------------------------|-------------------------------|
|-2---2---2---2---2---2---2---2---|-2---2---2---2---2---2---2-----|
|-0-000-000-000-000-000-000-000---|-0-000-000-000-000-000-000-005-|
|-------------------------------3-|-----------------------------3-|
|                                 |                               |
|-0---0---0---0---0---------------|-0---0---0---0---0-------------|
|-1---1---0---0---1---------------|-1---1---0---0---1-------------|
|-2---2---2---2---2---------------|-2---2---2---2---2-------------|
|-2---2---2---2---2---------------|-2---2---2---2---2-------------|
|-0---0---0---0---0---------------|-0---0---0---0---0-------------|
|---------------------------------|-------------------------------|

|---------------------------------|-------------------------------|
|---------------------------------|-------------------------------|
|---------------------------------|-------------------------------|
|---------------------------------|-------------------------------|
|-2---2---2---2---2---2---2---2---|-2---2---2---2---2---2---2-4-5-|
|-0-000-000-000-000-000-000-000-0-|-0-000-000-000-000-000-000-2-3-|
|                                 |                               |
|-7---7---7---7---7---------------|-7---7---7---7---7-------------|
|-8---8---7---7---8---------------|-8---8---7---7---8-------------|
|-9---9---9---9---9---------------|-9---9---9---9---9-------------|
|-9---9---9---9---9---------------|-9---9---9---9---9-------------|
|-7---7---7---7---7---------------|-7---7---7---7---7-------------|
|---------------------------------|-------------------------------|

1'58"
|---|
|---|
|---|
|---|
|-2-|
|-0-|

2'09"
|---------|
|---------|
|---------|
|---------|
|-2-4-5-7-|
|-0-2-3-5-|

2'11"
|------------------|------------------|------------------|-------------------|
|------------------|------------------|------------------|----------8-7-5-7\-|
|------------------|------------------|------------------|-7-----------------|
|------------------|------------------|------------------|-5--------5-4-2-4\-|
|-4----------------|-2----------------|-4----------------|-------------------|
|-2----------------|-0----------------|-2----------------|-------------------|

2'34"
|---------------------------------|-------------------------------------|
|---------------------------------|-------------------------------------|
|---------------------------------|---------------------9-9-9-9---------|
|-----------------7-7-7-7---------|-------------9-9-9-9---------9-9-9-9-|
|-6-6-6-6-9-9-9-9---------9-9-9-9-|-10-10-10-10-------------------------|
|---------------------------------|-------------------------------------|

|---------------------------------|-------------------------------------------------|
|---------------------------------|-------------------------------------------------|
|---------------------------------|-------------------------------------------------|
|-----------------7-7-7-7---------|-------------------------------------------------|
|-6-6-6-6-9-9-9-9---------9-9-9-9-|-10-10-10-10-10-10-10-10-10-10-10-10-10-10-10-10-|
|---------------------------------|-------------------------------------------------|

2'57"
|---------------------------------------------|
|----------------------------------12---12-12-|
|-12---12-12-11---11-11-14---14-14------------|
|---------------------------------------------|
|---------------------------------------------|
|---------------------------------------------|

|---------------------------------------------|
|---------------------------------------------|
|-12---12-12-11---11-11-14---14-14-12---12-12-|
|---------------------------------------------|
|---------------------------------------------|
|---------------------------------------------|

|---------------------------------------------|
|----------------------------------12---12-12-|
|-12---12-12-11---11-11-14---14-14------------|
|---------------------------------------------|
|---------------------------------------------|
|---------------------------------------------|

|---------------------------------------------|
|---------------------------------------------|
|-12---12-12-11---11-11-----------------------|
|-----------------------12---12-12-14---14-14-|
|---------------------------------------------|
|---------------------------------------------|

rhythm plays this 4 times :
|-----------------|-----------------|-----------------|-----------------|
|-----------------|-----------------|-----------------|-----------------|
|-----------------|-----------------|-----------------|-----------------|
|-----------------|-----------------|-----------------|-----------------|
|-5-----5-----5-5-|-4-----4-----4-4-|-7-----7-----7-7-|-5-----5-----5-5-|
|-3-3-3-3-3-3-3-3-|-2-2-2-2-2-2-2-2-|-5-5-5-5-5-5-5-5-|-3-3-3-3-3-3-3-3-|

1 octave higher, this is played, but changed at second part
|-----------------|-----------------|-----------------|-----------------|
|-----------------|-----------------|-----------------|-----------------|
|-7-----7-----7-7-|-6-----6-----6-6-|-2-----2-----2-2-|-4-----4-----4-4-|
|-5-5-5-5-5-5-5-5-|-4-4-4-4-4-4-4-4-|-0-0-0-0-0-0-0-0-|-2-2-2-2-2-2-2-2-|
|-----------------|-----------------|-----------------|-----------------|
|-----------------|-----------------|-----------------|-----------------|

3'20"
|-----------------|
|-----------------|
|-----------------|
|-----------------|
|-2---------------|
|-0---------------|

3'39"
|---------------------------------------|----------------------------------|
|-----------------10---10-10-12---12-12-|----------------------------------|
|-9---9-9-8---8-8-----------------------|-9---9-9-8---8-8-9---11---8---9---|
|---------------------------------------|----------------------------------|
|---------------------------------------|----------------------------------|
|---------------------------------------|----------------------------------|

3'50"
|------------------|------------------|------------------|-----------------|
|---7-8---7-8-10---|---7-8---7-8-10---|-7-8-7----8p7-----|-----7---8p7-----|
|-9----------------|-9----------------|--------------9---|-7-9---------9---|
|------------------|------------------|------------------|-----------------|
|------------------|------------------|------------------|-----------------|
|------------------|------------------|------------------|-----------------|

4'13"
|----------|
|----------|
|-( 9 )~~~-|
|----------|
|----------|
|----------|

4'35"
|-------------------------------------------------|
|-------------------------------------------------|
|---------------------------------------------8~~-|
|--------4-5-4---5-4------4-5-5/7---5-7-7/9-------|
|-5\/7~--------------/7---------------------------|
|-------------------------------------------------|
|                                                 |
|-------------------------------------------------|
|-------------------------------------------------|
|---------------------------------------------3---|
|-------------------------------2---------4---1---|
|----2-------4------------------0---------2-------|
|----0-------2------------------------------------|

|-19---15-19p17p15-17---15-------------------------|
|--------------------------17---12-----------------|
|----------------------------------12---14-12-11---|
|--------------------------------------------------|
|--------------------------------------------------|
|--------------------------------------------------|
|                                                  |
|--------------------------------------------------|
|--------------------------------------------------|
|--------------------------------------------------|
|-------------------5---------------2--------------|
|--2----------------3---------------0--------------|
|--0-----------------------------------------------|

|-------------------------------------------------------|
|-------------16-17-16----------------16-17-16----------|
|-------16-17----------17-16-17-16-17----------17-16-17-|
|-16-17-------------------------------------------------|
|-------------------------------------------------------|
|-------------------------------------------------------|
|                                                       |
|-------------------------------------------------------|
|-------------------------------------------------------|
|--------------------------------8----------------------|
|--------4-----------------------6----------------------|
|--------2----------------------------------------------|
|-------------------------------------------------------|

|---------------------------------------------------------------|
|-15B-----15B---15~~~---13-12-13-12---12-13-12----12-13-12------|
|----------------------------------------------14----------12---|
|---------------------------------------------------------------|
|---------------------------------------------------------------|
|---------------------------------------------------------------|
|                                                               |
|---------------------------------------------------------------|
|---------------------------------------------------------------|
|---------------------------------------------------------------|
|---------------------------2-----------------------------------|
|--2-------?----------------0-----------------------------------|
|--0-------?----------------------------------------------------|

|-------------------------------------------------|------|
|-------------------------------------------------|------|
|-11-12-11-12-14-12-11-12-11-12-11----11----------|------|
|----------------------------------14----14-14-13-|-14---|
|-------------------------------------------------|------|
|-------------------------------------------------|------|
|                                                 |
|-------------------------------------------------|
|-------------------------------------------------|
|--------------------------3----------------------|
|--4-----------------------1----------------------|
|--2----------------------------------------------|
|-------------------------------------------------|

|-19p12-19p12-19p12-19p12-19p12-19p12-19p12-19p12-|
|-------------------------------------------------|
|-------------------------------------------------|
|-------------------------------------------------|
|-------------------------------------------------|
|-------------------------------------------------|
|                                                 |
|-------------------------------------------------|
|-------------------------------------------------|
|-------------------------------------------------|
|-------------------------------------------------|
|--2----------------------------------------------|
|--0----------------------------------------------|

|-15p12-15p12-15p12-15p12-15p12-15p12-15p12-15p12-|
|-------------------------------------------------|
|-------------------------------------------------|
|-------------------------------------------------|
|-------------------------------------------------|
|-------------------------------------------------|

|-22p12-22p12-22p12-22p12-22p12-22p12-22p12-22p12-|
|-------------------------------------------------|
|-------------------------------------------------|
|-------------------------------------------------|
|-------------------------------------------------|
|-------------------------------------------------|
|                                                 |
|-------------------------------------------------|
|-------------------------------------------------|
|-------------------------------------------------|
|--5----------------------------------------------|
|--3----------------------------------------------|
|-------------------------------------------------|

|-20p12-20p12-20p12-20p12-20p12-20p12-20p12-20p12-|
|-------------------------------------------------|
|-------------------------------------------------|
|-------------------------------------------------|
|-------------------------------------------------|
|-------------------------------------------------|

|----------19-------------22-20-19----------------|
|-19-20-22----22-20-19-20----------22-20-19-20-22-|
|-------------------------------------------------|
|-------------------------------------------------|
|-------------------------------------------------|
|-------------------------------------------------|
|                                                 |
|-------------------------------------------------|
|-------------------------------------------------|
|-------------------------------------------------|
|--2----------------------------------------------|
|--0----------------------------------------------|
|-------------------------------------------------|
Tap to rate this tab
# A B C D E F G H I J K L M N O P Q R S T U V W X Y Z