Song name
# A B C D E F G H I J K L M N O P Q R S T U V W X Y Z

Therion - Dark Venus Persephone tab

Band:  Therion
Album: Sirius B
Song:  Dark Venus Persephone

Transcribed By: Gerardo Lugo
Email:          ger_30@hotmail.com

Hey everyone, hope you can use this tab, please send me a mail for comments.

Dark Venus Persephone

Intro
Guitar 1

----------------------------------------------------------|
----------------------------------------------------------|
---7-9-10-9~----7-9-10-9-7----6-7-9-----------------------|
-8------------8-------------7-------8----5--7----8-7------|
-----------------------------------------------------10-8-|
----------------------------------------------------------|


---------------------------------------------------------------|
---------------------------------------------------------------|
---------------------7-9-10-9-7---6~--9~--10~-9p10-10---10-9-7-|
----8-10--12-10~---8-------------------------------------------|
-10------------------------------------------------------------|
---------------------------------------------------------------|


Guitar 2

------------------------------------------------------|
------------------------------------------------------|
-7-7-7-7---3-3-3-3-------------3-3-3-3---7-7-7-7------|
-7-7-7-7---3-3-3-3---5-5-5-5---3-3-3-3---7-7-7-7------|
-5-5-5-5---1-1-1-1---5-5-5-5---1-1-1-1---5-5-5-5------|
---------------------3-3-3-3--------------------------|

Verse
Guitar 1 and 2
---------------------------------------------------------|
---------------------------------------------------------|
-7-7-7-7-7-7-7----------------3-3-3-3/-7-7-7-------------|
-7-7-7-7-7-7-7---7-7-7-7------3-3-3-3/-7-7-7----7-7-7-7--| x2
-5-5-5-5-5-5-5---7-7-7-7------1-1-1-1/-5-5-5----7-7-7-7--|
-----------------5-5-5-5------------------------5-5-5-5--|


Chorus
Guitar 1
-----------------------------------------------|
-----------------------------------------------|
-----------------------------------------------|
-----------------------------------------------|
-8-7-8-----8-7-8-----8---8-7-8-5--8-7-8-5---8--|
-------6---------6-----------------------------|


-----------------------------------------------|
-----------------------------------------------|
-----------------------------------------------|
-----------------------------------------------|
-8-7-8-----8-7-8-----8---8-7-8-5--8-7-8-5------|
-------6---------6-----------------------------|


Guitar 2
----------------------------------|
----------------------------------|
-3--33--3--33----7--77--7--77-----|
-3--33--3--33----7--77--7--77-----|x2
-1--11--1--11----5--55--5--55-----|
----------------------------------|

REPEAT VERSE AND CHORUS

INTERLUDE 1

--------------------------------------|
--------------------------------------|
----------5-5-5-5--7-7-7-7--3-3-3-3---|
-3-3-3-3--5-5-5-5--7-7-7-7--3-3-3-3---|X2
-3-3-3-3--3-3-3-3--5-5-5-5--1-1-1-1---|
-1-1-1-1------------------------------|


REPEAT CHORUS


AND THEN THIS VARIATION

Guitar 1
---------------------------------------------|
---------------------------------------------|
---------------------------------------------|
---------------------------------------------|
-9-8-9----9-8-9-----9---9-8-9-6--9-8-9-6---9-|
-------7--------7----------------------------|


---------------------------------------------|
---------------------------------------------|
---------------------------------------------|
---------------------------------------------|
-9-8-9----9-8-9-----9---9-8-9-6--9-8-9-6-----|
-------7--------7----------------------------|


Guitar 2

------------------------------------------|
------------------------------------------|
-4--44--4--44----8--88--8--88-------------|
-4--44--4--44----8--88--8--88-------------|x2
-2--22--2--22----6--66--6--66-------------|
------------------------------------------|

Interlude 2

---------------------------------------------|
---------------------------------------------|
----------6-6-6-6--8-8-8-8--4-4-4-4----------|
-4-4-4-4--6-6-6-6--8-8-8-8--4-4-4-4----------|x2
-4-4-4-4--4-4-4-4--6-6-6-6--2-2-2-2----------|
-2-2-2-2-------------------------------------|


final chord


--------------------|
--------------------|
--------------------|
----4---------------|
----4-(let ring)----|
----2---------------|
Tap to rate this tab
# A B C D E F G H I J K L M N O P Q R S T U V W X Y Z