Guitaretab - guitar tabs
Song name
# A B C D E F G H I J K L M N O P Q R S T U V W X Y Z

Therion - The Beauty In Black tab

eb:-2--2-2-2-2-2-2-2------4-4-4-4-4-4-4-|
Bb:-2--2-2-2-2-2-2-2------5-5-5-5-5-5-5-|
Gb:-2--2-2-2-2-2-2-2---6--6-6-6-6-6-6-6-|
Db:-4--4-4-4-4-4-4-4---6--6-6-6-6-6-6-6-|
Ab:-4--4-4-4-4-4-4-4---4--4-4-4-4-4-4-4-|
Eb:-2--2-2-2-2-2-2-2--------------------|

eb:-2--2-2-2-2-2-2-2------4-4-4-4-4-4-4-|
Bb:-2--2-2-2-2-2-2-2------5-5-5-5-5-5-5-|
Gb:-2--2-2-2-2-2-2-2---6--6-6-6-6-6-6-6-|
Db:-4--4-4-4-4-4-4-4---6--6-6-6-6-6-6-6-|
Ab:-4--4-4-4-4-4-4-4---4--4-4-4-4-4-4-4-|
Eb:-2--2-2-2-2-2-2-2--------------------|


eb:-------------------2--2-2-2-2-2-2-2-2-|
Bb:-3--3-3-3-3-3-3-3--2--2-2-2-2-2-2-2-2-|
Gb:-4--4-4-4-4-4-4-4--2--2-2-2-2-2-2-2-2-|
Db:-4--4-4-4-4-4-4-4--4--4-4-4-4-4-4-4-4-|
Ab:-2--2-2-2-2-2-2-2--4--4-4-4-4-4-4-4-4-|
Eb:-------------------2--2-2-2-2-2-2-2-2-|

eb:-------------------2--2-2-2-2-2-2-2-2-|
Bb:-3--3-3-3-3-3-3-3--2--2-2-2-2-2-2-2-2-|
Gb:-4--4-4-4-4-4-4-4--2--2-2-2-2-2-2-2-2-|
Db:-4--4-4-4-4-4-4-4--4--4-4-4-4-4-4-4-4-|
Ab:-2--2-2-2-2-2-2-2--4--4-4-4-4-4-4-4-4-|
Eb:-------------------2--2-2-2-2-2-2-2-2-|


e:-5--5-5-5-5-5-5-5-5--0--0-0-0-0-0-0-0-0-0-|
B:-5--5-5-5-5-5-5-5-5--0--0-0-0-0-0-0-0-0-0-|
G:-5--5-5-5-5-5-5-5-5--0--0-0-0-0-0-0-0-0-0-|
D:-7--7-7-7-7-7-7-7-7--2--2-2-2-2-2-2-2-2-2-|
A:-7--7-7-7-7-7-7-7-7--2--2-2-2-2-2-2-2-2-2-|
E:-5--5-5-5-5-5-5-5-5--0--0-0-0-0-0-0-0-0-0-|

e:-5--5-5-5-5-5-5-5-5--0--0-0-0-0-0-0-0-0-0-|
B:-5--5-5-5-5-5-5-5-5--0--0-0-0-0-0-0-0-0-0-|
G:-5--5-5-5-5-5-5-5-5--0--0-0-0-0-0-0-0-0-0-|
D:-7--7-7-7-7-7-7-7-7--2--2-2-2-2-2-2-2-2-2-|
A:-7--7-7-7-7-7-7-7-7--2--2-2-2-2-2-2-2-2-2-|
E:-5--5-5-5-5-5-5-5-5--0--0-0-0-0-0-0-0-0-0-|


:-3--3-3-3-3-3-3-3-3---2--2-2-2-2-2-2-2-2-2-|
:-3--3-3-3-3-3-3-3-3---3--3-3-3-3-3-3-3-3-3-|
:-3--3-3-3-3-3-3-3-3---2--2-2-2-2-2-2-2-2-2-|
:-5--5-5-5-5-5-5-5-5---0--0-0-0-0-0-0-0-0-0-|
:-5--5-5-5-5-5-5-5-5------------------------|
:-3--3-3-3-3-3-3-3-3------------------------|

:-3--3-3-3-3-3-3-3-3---2--2-2-2-2-2-2-2-2-2-|
:-3--3-3-3-3-3-3-3-3---3--3-3-3-3-3-3-3-3-3-|
:-3--3-3-3-3-3-3-3-3---2--2-2-2-2-2-2-2-2-2-|
:-5--5-5-5-5-5-5-5-5---0--0-0-0-0-0-0-0-0-0-|
:-5--5-5-5-5-5-5-5-5------------------------|
:-3--3-3-3-3-3-3-3-3------------------------|


eb:-2--2-2-2-2-2-2-2------4-4-4-4-4-4-4-|
Bb:-2--2-2-2-2-2-2-2------5-5-5-5-5-5-5-|
Gb:-2--2-2-2-2-2-2-2---6--6-6-6-6-6-6-6-|
Db:-4------------------6----------------|
Ab:-4------------------4----------------|
Eb:-2-----------------------------------|

eb:-2--2-2-2-2-2-2-2------4-4-4-4-4-4-4-|
Bb:-2--2-2-2-2-2-2-2------5-5-5-5-5-5-5-|
Gb:-2--2-2-2-2-2-2-2---6--6-6-6-6-6-6-6-|
Db:-4------------------6----------------|
Ab:-4------------------4----------------|
Eb:-2-----------------------------------|

eb:----2-2-2-2-2-2-2--2--2-2-2-2-2-2-2-2-|
Bb:-3--3-3-3-3-3-3-3--2--2-2-2-2-2-2-2-2-|
Gb:-4--4-4-4-4-4-4-4--2--2-2-2-2-2-2-2-2-|
Db:-4-----------------4------------------|
Ab:-2-----------------4------------------|
Eb:-------------------2------------------|

eb:----2-2-2-2-2-2-2--2--2-2-2-2-2-2-2-2-|
Bb:-3--3-3-3-3-3-3-3--2--2-2-2-2-2-2-2-2-|
Gb:-4--4-4-4-4-4-4-4--2--2-2-2-2-2-2-2-2-|
Db:-4-----------------4------------------|
Ab:-2-----------------4------------------|
Eb:-------------------2------------------|

gt2
eb:-------------------------|
Bb:-------------------------|
Gb:-------------------------| x2
Db:-7-------------------2---|
Ab:-7-------------------2---|
Eb:-5-------------------0---|
[ Tab from: http://www.guitaretab.com/t/therion/109997.html ]
gt2
:-------------------------------------------|
:-------------------------------------------|
:----------------------7--------------------|
:-5--------------------7--------------------|x2
:-5--------------------5--------------------|
:-3-----------------------------------------|

gt1
e:-------------------------------------------------------------------|
B:------------------------10---10-9----------------------------------|
G:----------7--9---10-9-------------10-9-7-9-10-9-7--10-9-9-7-9/14/3-|
D:-7---9-10----------------------------------------------------------|
A:-------------------------------------------------------------------|
E:-------------------------------------------------------------------|

gt1
e:------------------------------------------------------------|
B:------------------------------------------------------------|
G:---------5--7---2---------------5--7-8-10-8-7----7-8-7--6-6-|
D:-5--7-8------------3-----5--7-8---------------10------------|
A:------------------------------------------------------------|
E:------------------------------------------------------------|


verse
eb:-------------------------------------|
Bb:-------------------------------------|
Gb:--------------------6--6-6-6-6-6-6-6-|
Db:-4--4-4-4-4-4-4-4---6--6-6-6-6-6-6-6-| x 2
Ab:-4--4-4-4-4-4-4-4---4--4-4-4-4-4-4-4-|
Eb:-2--2-2-2-2-2-2-2--------------------|

eb:--------------------------------------|
Bb:--------------------------------------|
Gb:-4--4-4-4-4-4-4-4---------------------|
Db:-4--4-4-4-4-4-4-4--4--4-4-4-4-4-4-4-4-|x2
Ab:-2--2-2-2-2-2-2-2--4--4-4-4-4-4-4-4-4-|
Eb:-------------------2--2-2-2-2-2-2-2-2-|

e:------------------------------------------|
B:------------------------------------------|
G:------------------------------------------|
D:-7--7-7-7-7-7-7-7-7--2--2-2-2-2-2-2-2-2-2-| x 2
A:-7--7-7-7-7-7-7-7-7--2--2-2-2-2-2-2-2-2-2-|
E:-5--5-5-5-5-5-5-5-5--0--0-0-0-0-0-0-0-0-0-|

:-------------------------------------------|
:-------------------------------------------|
:----------------------7--7-7-7-7-7-7-7-7-7-|
:-5--5-5-5-5-5-5-5-5---7--7-7-7-7-7-7-7-7-7-| x 2
:-5--5-5-5-5-5-5-5-5---5--5-5-5-5-5-5-5-5-5-|
:-3--3-3-3-3-3-3-3-3------------------------|

eb:-2--2-2-2-2-2-2-2------4-4-4-4-4-4-4-|
Bb:-2--2-2-2-2-2-2-2------5-5-5-5-5-5-5-|
Gb:-2--2-2-2-2-2-2-2---6--6-6-6-6-6-6-6-|
Db:-4------------------6----------------|
Ab:-4------------------4----------------|
Eb:-2-----------------------------------|

eb:-2--2-2-2-2-2-2-2------4-4-4-4-4-4-4-|
Bb:-2--2-2-2-2-2-2-2------5-5-5-5-5-5-5-|
Gb:-2--2-2-2-2-2-2-2---6--6-6-6-6-6-6-6-|
Db:-4------------------6----------------|
Ab:-4------------------4----------------|
Eb:-2-----------------------------------|

eb:----2-2-2-2-2-2-2--2--2-2-2-2-2-2-2-2-|
Bb:-3--3-3-3-3-3-3-3--2--2-2-2-2-2-2-2-2-|
Gb:-4--4-4-4-4-4-4-4--2--2-2-2-2-2-2-2-2-|
Db:-4-----------------4------------------|
Ab:-2-----------------4------------------|
Eb:-------------------2------------------|

eb:----2-2-2-2-2-2-2--2--2-2-2-2-2-2-2-2-|
Bb:-3--3-3-3-3-3-3-3--2--2-2-2-2-2-2-2-2-|
Gb:-4--4-4-4-4-4-4-4--2--2-2-2-2-2-2-2-2-|
Db:-4-----------------4------------------|
Ab:-2-----------------4------------------|
Eb:-------------------2------------------|

eb:-------------------------|
Bb:-------------------------|
Gb:-------------------------| x2
Db:-7-------------------2---|
Ab:-7-------------------2---|
Eb:-5-------------------0---|

:------------------------------------------|
:------------------------------------------|
:------------------------------------------|
:-4----------------------------------------|
:-4----------------------------------------|
:-2----------------------------------------|
Related for The Beauty In Black tab
Advertisement will be closed in 10 seconds