Song name
# A B C D E F G H I J K L M N O P Q R S T U V W X Y Z

Therion - Grand Finale Postludium tab

#----------------------------------PLEASE NOTE---------------------------------#
#This file is the author's own work and represents their interpretation of the #
#song. You may only use this file for private study, scholarship, or research. #
#------------------------------------------------------------------------------#

GRAND FINALE/POSTLUDIUM
As recorded by Therion
(From the 1996 Album THELI)

Transcribed by rumitema@freemail.hu
	

Music by C. Johnsson

Gtr I (Db Gb B E Ab Db) - 'Guitar'
Gtr II (Db Gb B E Ab Db) - 'Trumpet 1'
Gtr III (Db Gb B E Ab Db) - 'Strings'
Gtr IV (Db Gb B E Ab Db) - 'Piano'
Gtr V (Db Gb B E Ab Db) - 'Trumpet 2'

 Pre-Verse
  Q=144
            G#5                           F5   G#5                     E5
 4/4
  Gtr I
  H    Q  E E     H.                  +E   E   H.                  +E   E
|-------------||-----------------------------|----------------------------|
|-------------||o----------------------------|----------------------------|
|-------------||-----------------------------|----------------------------|
|-------------||-----------------------------|----------------------------|
|-----------6-||o-7-------------------(7)--3-|-6-------------------(6)--2-|
|-----------4-||--5-------------------(5)--1-|-4-------------------(4)--0-|
|
| Gtr III
| W               E   E  E  E  +E   E  E   E   E   E  E  E  +E   E  E   E
|-------------||-----20-19-17-(17)-20-19--17-|----19-17-16-(16)-19-17--16-|
|-------------||o----------------------------|----------------------------|
|-------------||-----------------------------|----------------------------|
|-------------||-----------------------------|----------------------------|
|-------------||o----------------------------|----------------------------|
|-------------||-----------------------------|----------------------------|
|
| Gtr II
| H    Q  E E     H.                  +E   E   H.                  +E   E
|-------------||-----------------------------|----------------------------|
|-------------||o----------------------------|----------------------------|
|-------------||-----------------------------|----------------------------|
|-----------6-||--7-------------------(7)--3-|-6-------------------(6)--2-|
|-------------||o----------------------------|----------------------------|
|-------------||-----------------------------|----------------------------|


  F5                      G#5  E5                            G#5
 4/4
  H.                  +E   E   H.                  +E         E
|----------------------------|-----------------------------------||
|----------------------------|----------------------------------o||
|----------------------------|-----------------------------------||
|----------------------------|-----------------------------------||
|-3-------------------(3)--6-|-2-------------------(2)--------6-o||
|-1-------------------(1)--4-|-0-------------------(0)--------4--||
|
|                                                   |--3---|
| E   E  E  E  +E   E  E   E   E   E  E  E  +E   E  S   S  S  E
|----17-16---------17-16-----|----16-----------------------------||
|----------18-(18)--------18-|-------18-17-(17)-17-17--18-17-15-o||
|----------------------------|-----------------------------------||
|----------------------------|-----------------------------------||
|----------------------------|----------------------------------o||
|----------------------------|-----------------------------------||
|
| H.                  +E   E   H.                  +E         E
|----------------------------|-----------------------------------||
|----------------------------|----------------------------------o||
|----------------------------|-----------------------------------||
|-3-------------------(3)--6-|-2-------------------(2)--------6--||
|----------------------------|----------------------------------o||
|----------------------------|-----------------------------------||


 Verse
  N.C.
  PM------------------------------------------------|
  E S S E S S E S S E S S    E  S S E S S E S S E S S
|-------------------------|---------------------------|
|-------------------------|---------------------------|
|-------------------------|---------------------------|
|-------------------------|---------------------------|
|-7-7-7-7-7-7-7-7-7-7-7-7-|--7--7-7-7-7-7-7-7-7-7-7-7-|
|-------------------------|---------------------------|
|
| Gtr II
| W                         +W
|-------------------------|---------------------------|
|-------------------------|---------------------------|
|-------------------------|---------------------------|
|-9-----------------------|-(9)-----------------------|
|-------------------------|---------------------------|
|-------------------------|---------------------------|
|
| Gtr III
| W                         +W
|-------------------------|---------------------------|
|-------------------------|---------------------------|
|-9-----------------------|-(9)-----------------------|
|-------------------------|---------------------------|
|-------------------------|---------------------------|
|-------------------------|---------------------------|


  D
   PM-------------------------------------------------|
   E S S E S S E S S E S S     E  S S E S S E S S E S S
|--------------------------|----------------------------|
|--------------------------|----------------------------|
|--------------------------|----------------------------|
|--4-4-4-4-4-4-4-4-4-4-4-4-|---4--4-4-4-4-4-4-4-4-4-4-4-|
|--5-5-5-5-5-5-5-5-5-5-5-5-|---5--5-5-5-5-5-5-5-5-5-5-5-|
|--------------------------|----------------------------|
|
|  W                          +W
|--------------------------|----------------------------|
|--------------------------|----------------------------|
|--------------------------|----------------------------|
|-12-----------------------|-(12)-----------------------|
|--------------------------|----------------------------|
|--------------------------|----------------------------|
|
|  W                          +W
|--------------------------|----------------------------|
|--------------------------|----------------------------|
|-11-----------------------|-(11)-----------------------|
|--------------------------|----------------------------|
|--------------------------|----------------------------|
|--------------------------|----------------------------|


  C5                             C
   PM-------------------------------------------------------|
   S S S S E S S S S S S E S S    S S S S E S S S S S S E S S
|------------------------------|------------------------------|
|------------------------------|------------------------------|
|------------------------------|------------------------------|
|--5-5-5-5-5-5-5-5-5-5-5-5-5-5-|--5-5-5-5-5-5-5-5-5-5-5-5-5-5-|
|--3-3-3-3-3-3-3-3-3-3-3-3-3-3-|--4-4-4-4-4-4-4-4-4-4-4-4-4-4-|
|------------------------------|------------------------------|
|
|  W                              W
|------------------------------|------------------------------|
|------------------------------|------------------------------|
|------------------------------|------------------------------|
|------------------------------|------------------------------|
|-10---------------------------|-10---------------------------|
|------------------------------|------------------------------|
|
|  W                              W
|------------------------------|------------------------------|
|------------------------------|------------------------------|
|------------------------------|------------------------------|
|-10---------------------------|-11---------------------------|
|------------------------------|------------------------------|
|------------------------------|------------------------------|


  D5
   PM-----------------------------------------------------------------|
   S S S S S S S S S S S S S S S S     S  S S S S S S S S S S S S S S S
|----------------------------------|------------------------------------|
|----------------------------------|------------------------------------|
|----------------------------------|------------------------------------|
|--7-7-7-7-7-7-7-7-7-7-7-7-7-7-7-7-|---7--7-7-7-7-7-7-7-7-7-7-7-7-7-7-7-|
|--5-5-5-5-5-5-5-5-5-5-5-5-5-5-5-5-|---5--5-5-5-5-5-5-5-5-5-5-5-5-5-5-5-|
|----------------------------------|------------------------------------|
|
|  W                                  +W
|----------------------------------|------------------------------------|
|----------------------------------|------------------------------------|
|----------------------------------|------------------------------------|
|----------------------------------|------------------------------------|
|-12-------------------------------|-(12)-------------------------------|
|----------------------------------|------------------------------------|
|
|  W                                  +W
|----------------------------------|------------------------------------|
|----------------------------------|------------------------------------|
|----------------------------------|------------------------------------|
|-12-------------------------------|-(12)-------------------------------|
|----------------------------------|------------------------------------|
|----------------------------------|------------------------------------|


  N.C.
   PM--------------------------------------------------------------|
   E  S S  E  S S  E  S S  E  S S    E   S S  E  S S  E  S S  E  S S
|---------------------------------|----------------------------------|
|---------------------------------|----------------------------------|
|---------------------------------|----------------------------------|
|---------------------------------|----------------------------------|
|--7--7-7--7--7-7--7--7-7--7--7-7-|--7---7-7--7--7-7--7--7-7--7--7-7-|
|---------------------------------|----------------------------------|
|
|  W                                +W
|---------------------------------|----------------------------------|
|---------------------------------|----------------------------------|
|--9------------------------------|-(9)------------------------------|
|---------------------------------|----------------------------------|
|---------------------------------|----------------------------------|
|---------------------------------|----------------------------------|
|
|  E  E    E  E    E  E    E  E      E   E    E  E    E  E    E  E
|-19-17---15--------------15-17---|-19--17---15--------------15-17---|
|------------19---17-19-----------|-------------19---17-19-----------|
|---------------------------------|----------------------------------|
|---------------------------------|----------------------------------|
|---------------------------------|----------------------------------|
|---------------------------------|----------------------------------|


  D
   PM---------------------------------------------------------------|
   E  S S  E  S S  E  S S  E  S S     E   S S  E  S S  E  S S  E  S S
|---------------------------------|-----------------------------------|
|---------------------------------|-----------------------------------|
|---------------------------------|-----------------------------------|
|--4--4-4--4--4-4--4--4-4--4--4-4-|---4---4-4--4--4-4--4--4-4--4--4-4-|
|--5--5-5--5--5-5--5--5-5--5--5-5-|---5---5-5--5--5-5--5--5-5--5--5-5-|
|---------------------------------|-----------------------------------|
|
|  W                                 +W
|---------------------------------|-----------------------------------|
|---------------------------------|-----------------------------------|
|-11------------------------------|-(11)------------------------------|
|---------------------------------|-----------------------------------|
|---------------------------------|-----------------------------------|
|---------------------------------|-----------------------------------|
|
|  E  E    E  E    E  E    E  E       E   E    E  E    E  E    E  E
|-19-17---15--------------15-17---|--19--17---15--------------15-20---|
|------------19---17-19-----------|--------------19---17-19-----------|
|---------------------------------|-----------------------------------|
|---------------------------------|-----------------------------------|
|---------------------------------|-----------------------------------|
|---------------------------------|-----------------------------------|


  C5                                    C
   PM---------------------------------------------------------------------|
   S S  S S  E  S S  S S  S S  E  S S    S S  S S  E  S S  S S  S S  E  S S
|-------------------------------------|-------------------------------------|
|-------------------------------------|-------------------------------------|
|-------------------------------------|-------------------------------------|
|--5-5--5-5--5--5-5--5-5--5-5--5--5-5-|--5-5--5-5--5--5-5--5-5--5-5--5--5-5-|
|--3-3--3-3--3--3-3--3-3--3-3--3--3-3-|--4-4--4-4--4--4-4--4-4--4-4--4--4-4-|
|-------------------------------------|-------------------------------------|
|
|  W                                     W
|-------------------------------------|-------------------------------------|
|-------------------------------------|-------------------------------------|
|-------------------------------------|-------------------------------------|
|-10----------------------------------|-11----------------------------------|
|-------------------------------------|-------------------------------------|
|-------------------------------------|-------------------------------------|
|
|  E    E    E  E    E    E    E  E      E    E    E  E    E    E    E  E
|-19---20---17-20---15---20------20---|-19---20---17-20---15---20------20---|
|-----------------------------19------|-----------------------------19------|
|-------------------------------------|-------------------------------------|
|-------------------------------------|-------------------------------------|
|-------------------------------------|-------------------------------------|
|-------------------------------------|-------------------------------------|


  D5
   PM----------------------------------------------
   S  S  S  S  S  S  S  S  S  S  S  S  S  S  S  S
|-------------------------------------------------|
|-------------------------------------------------|
|-------------------------------------------------|
|--7--7--7--7--7--7--7--7--7--7--7--7--7--7--7--7-|
|--5--5--5--5--5--5--5--5--5--5--5--5--5--5--5--5-|
|-------------------------------------------------|
|
|  W
|-------------------------------------------------|
|-------------------------------------------------|
|-------------------------------------------------|
|-12----------------------------------------------|
|-------------------------------------------------|
|-------------------------------------------------|
|
|  S  S  S  S  S  S  S  S  S  S  S  S  S  S  S  S
|----20----20----20----20----20----20----20----20-|
|-20----19----------------20----19----------------|
|-------------20----19----------------20----19----|
|-------------------------------------------------|
|-------------------------------------------------|
|-------------------------------------------------|


 ------------------------------------------------|
    S   S  S  S  S  S  S  S  S  S  S  S  S  S  S  S
|---------------------------------------------------|
|---------------------------------------------------|
|---------------------------------------------------|
|---7---7--7--7--7--7--7--7--7--7--7--7--7--7--7--7-|
|---5---5--5--5--5--5--5--5--5--5--5--5--5--5--5--5-|
|---------------------------------------------------|
|
|  +W
|---------------------------------------------------|
|---------------------------------------------------|
|---------------------------------------------------|
|-(12)----------------------------------------------|
|---------------------------------------------------|
|---------------------------------------------------|
|
|   S   S  S  S  S  S  S  S  S  S  S  S  S  S  S  S
|------20----20----20----20----20----20----20----20-|
|--20-----19----------------20----19----------------|
|---------------20----19----------------20----19----|
|---------------------------------------------------|
|---------------------------------------------------|
|---------------------------------------------------|


   Chorus
    A5                      E5
     PM----------------------------------------------
     E     E     E     E     E     E     E     E
||--------------------------------------------------|
||o-------------------------------------------------|
||--------------------------------------------------|
||---2-----2-----2-----2----------------------------|
||o--0-----0-----0-----0-----2-----2-----2-----2----|
||---------------------------0-----0-----0-----0----|
|
|   Gtr III
|    S  S  S  S  S  S  S  S  S  S  S  S  S  S  S  S
||--24-17-20-17-19-17-20-17-24-17-20-17-19-17-20-17-|
||o-------------------------------------------------|
||--------------------------------------------------|
||--------------------------------------------------|
||o-------------------------------------------------|
||--------------------------------------------------|


  F5                      G5
 -------------------------------------------|
   E     E     E     E     E     E     E     E      4x
|---------------------------------------------------||
|--------------------------------------------------o||
|---------------------------------------------------||
|---------------------------------------------------||
|--3-----3-----3-----3-----5-----5-----5-----5-----o||
|--1-----1-----1-----1-----3-----3-----3-----3------||
|
|  S  S  S  S  S  S  S  S  S  S  S  S  S  S  S  S   4x
|-24-17-20-17-19-17-20-17-24-17-20-17-19-17-20-17---||
|--------------------------------------------------o||
|---------------------------------------------------||
|---------------------------------------------------||
|--------------------------------------------------o||
|---------------------------------------------------||


   Guitar Break
   6/4                             4/4
    W              W                W
||---------------|---------------||------|
||o--------------|--------------o||------|
||---------------|---------------||------|
||---------------|---------------||------|
||o--------------|--------------o||------|
||---------------|---------------||------|


 Interlude
  $
  N.C.
  Gtr I
   Q.        E  Q.        E    Q.        E  Q.        E
|---------------------------|---------------------------|
|---------------------------|---------------------------|
|---------------------------|---------------------------|
|---------------------------|---------------------------|
|---------------------------|---------------------------|
|--5---------5--7---------7-|--8---------8--7---------7-|
|
| Gtr III
|  E   E  E  E  E   E  E  E    E   E  E  E  E   E  E  E
|---------------------------|---------------------------|
|-10--10-10-10-10--10-10-10-|-10--10-10-10-10--10-10-10-|
|---------------------------|---------------------------|
|---------------------------|---------------------------|
|---------------------------|---------------------------|
|---------------------------|---------------------------|
|
| Gtr II
|  Q.        E  Q.        E    Q.        E  Q.        E
|---------------------------|---------------------------|
|---------------------------|---------------------------|
|---------------------------|---------------------------|
|--7---------7--9---------9-|-10--------10--9---------9-|
|---------------------------|---------------------------|
|---------------------------|---------------------------|


   Q.        E  Q.        E    Q.        E  E  E +E   E
|---------------------------|---------------------------|
|---------------------------|---------------------------|
|---------------------------|---------------------------|
|---------------------------|---------------------------|
|---------------------------|---------------------------|
|--5---------5--7---------7-|--8--------10--8--7-(7)--7-|
|
|  E   E  E  E  E   E  E  E    E   E  E  E  E  E  E   E
|---------------------------|---------------------------|
|-10--10-10-10-10--10-10-10-|-10--10-10-10-10-10-10--10-|
|---------------------------|---------------------------|
|---------------------------|---------------------------|
|---------------------------|---------------------------|
|---------------------------|---------------------------|
|
|  Q.        E  Q.        E    Q.        E  E  E +E   E
|---------------------------|---------------------------|
|---------------------------|---------------------------|
|---------------------------|---------------------------|
|--7---------7--9---------9-|-10--------12-10--9-(9)--9-|
|---------------------------|---------------------------|
|---------------------------|---------------------------|


   Q.        E  Q.        E    Q.        E  Q.        E
|---------------------------|---------------------------|
|---------------------------|---------------------------|
|---------------------------|---------------------------|
|---------------------------|---------------------------|
|---------------------------|---------------------------|
|--5---------5--7---------7-|--8---------8--7---------7-|
|
|  E   E  E  E  E   E  E  E    E   E  E  E  E   E  E  E
|---------------------------|---------------------------|
|-10--10-10-10-10--10-10-10-|-10--10-10-10-10--10-10-10-|
|---------------------------|---------------------------|
|---------------------------|---------------------------|
|---------------------------|---------------------------|
|---------------------------|---------------------------|
|
|  Q.        E  Q.        E    Q.        E  Q.        E
|---------------------------|---------------------------|
|---------------------------|---------------------------|
|---------------------------|---------------------------|
|--7---------7--9---------9-|-10--------10--9---------9-|
|---------------------------|---------------------------|
|---------------------------|---------------------------|


   Q.        E  Q.        E    Q.        E  E  E  E  E
|---------------------------|--------------------------|
|---------------------------|--------------------------|
|---------------------------|--------------------------|
|---------------------------|--------------------------|
|---------------------------|--------------------------|
|--5---------5--7---------7-|--8--------11-10--8--7--8-|
|
|  E   E  E  E  E   E  E  E    E   E  E  E  E  E  E  E
|---------------------------|--------------------------|
|-10--10-10-10-10--10-10-10-|-10--10-10-10-10-10-10-10-|
|---------------------------|--------------------------|
|---------------------------|--------------------------|
|---------------------------|--------------------------|
|---------------------------|--------------------------|
|
|  Q.        E  Q.        E    Q.        E  E  E  E  E
|---------------------------|--------------------------|
|---------------------------|--------------------------|
|---------------------------|--------------------------|
|--7---------7--9---------9-|-10--------13-12-10--9-10-|
|---------------------------|--------------------------|
|---------------------------|--------------------------|


    Q.   Q  E Q    +H.                +E  E
||---------------|--------------------------|
||o--------------|--------------------------|
||---------------|--------------------------|
||---------------|--------------------------|
||o---------7-6--|-(6)----------------(6)---|
||--5----8-------|------------------------3-|
|
|   W               E   E  E  E  E  E  E  E
||---------------|-20--20-20-20-20-20-20----|
||o--------------|-22--22-22-22-22-22-22----|
||---------------|--------------------------|
||---------------|--------------------------|
||o--------------|--------------------------|
||---------------|--------------------------|


                                   D.S.
  Q.   Q  E Q    +W
|--------------|----------------------------||
|--------------|---------------------------o||
|--------------|----------------------------||
|--------------|----------------------------||
|---------7-6--|-(6)-----------------------o||
|-5----8-------|----------------------------||
|
| W               E   E  E  E  E  E  E  E
|--------------|-20--20-20-20-20-20-20-20---||
|--------------|-22--22-22-22-22-22-22-22--o||
|--------------|----------------------------||
|--------------|----------------------------||
|--------------|---------------------------o||
|--------------|----------------------------||


    N.C.
   6/4
    Gtr I
    PM---------------------------------------------------|
    E E E E E  E E E  E E E  E   E E E E E  E E E  E E E  E
||-----------------------------|-----------------------------||
||o----------------------------|----------------------------o||
||-----------------------------|-----------------------------||
||-----------------------------|-----------------------------||
||o---5-7---7-10---8-11---7-10-|---5-7---7-10---8-11---7-10-o||
||--5-----7------8------7------|-5-----7------8------7-------||


   Pre-Verse
    G#5              F5          G#5                     E5
   4/4
    Gtr I
    H.                  +E   E   H.                  +E   E
||-----------------------------|----------------------------|
||o----------------------------|----------------------------|
||-----------------------------|----------------------------|
||-----------------------------|----------------------------|
||o-7-------------------(7)--3-|-6-------------------(6)--2-|
||--5-------------------(5)--1-|-4-------------------(4)--0-|
|
|   Gtr III
|   E   E  E  E  +E   E  E   E   E   E  E  E  +E   E  E   E
||-----20-19-17-(17)-20-19--17-|----19-17-16-(16)-19-17--16-|
||o----------------------------|----------------------------|
||-----------------------------|----------------------------|
||-----------------------------|----------------------------|
||o----------------------------|----------------------------|
||-----------------------------|----------------------------|
|
|   Gtr II
|   H.                  +E   E   H.                  +E   E
||-----------------------------|----------------------------|
||o----------------------------|----------------------------|
||-----------------------------|----------------------------|
||--7-------------------(7)--3-|-6-------------------(6)--2-|
||o----------------------------|----------------------------|
||-----------------------------|----------------------------|


  F5                      G#5
  H.                  +E   E   H.                  +E         E
|----------------------------|-----------------------------------||
|----------------------------|----------------------------------o||
|----------------------------|-----------------------------------||
|----------------------------|-----------------------------------||
|-3-------------------(3)--6-|-2-------------------(2)--------6-o||
|-1-------------------(1)--4-|-0-------------------(0)--------4--||
|
|                                                   |--3---|
| E   E  E  E  +E   E  E   E   E   E  E  E  +E   E  S   S  S  E
|----17-16---------17-16-----|----16-----------------------------||
|----------18-(18)--------18-|-------18-17-(17)-17-17--18-17-15-o||
|----------------------------|-----------------------------------||
|----------------------------|-----------------------------------||
|----------------------------|----------------------------------o||
|----------------------------|-----------------------------------||
|
| H.                  +E   E   H.                  +E         E
|----------------------------|-----------------------------------||
|----------------------------|----------------------------------o||
|----------------------------|-----------------------------------||
|-3-------------------(3)--6-|-2-------------------(2)--------6--||
|----------------------------|----------------------------------o||
|----------------------------|-----------------------------------||


 Verse
  N.C.
  Gtr I
   E  S S  E  S S  E  S S  E  S S    E   S S  E  S S  E  S S  E  S S
|---------------------------------|----------------------------------|
|---------------------------------|----------------------------------|
|---------------------------------|----------------------------------|
|---------------------------------|----------------------------------|
|--7--7-7--7--7-7--7--7-7--7--7-7-|--7---7-7--7--7-7--7--7-7--7--7-7-|
|---------------------------------|----------------------------------|
|
| Gtr II
|  W                                +W
|---------------------------------|----------------------------------|
|---------------------------------|----------------------------------|
|--9------------------------------|-(9)------------------------------|
|---------------------------------|----------------------------------|
|---------------------------------|----------------------------------|
|---------------------------------|----------------------------------|
|
| Gtr III
|  E  E    E  E    E  E    E  E      E   E    E  E    E  E    E  E
|-19-17---15--------------15-17---|-19--17---15--------------15-17---|
|------------19---17-19-----------|-------------19---17-19-----------|
|---------------------------------|----------------------------------|
|---------------------------------|----------------------------------|
|---------------------------------|----------------------------------|
|---------------------------------|----------------------------------|


  D
   PM---------------------------------------------------------------|
   E  S S  E  S S  E  S S  E  S S     E   S S  E  S S  E  S S  E  S S
|---------------------------------|-----------------------------------|
|---------------------------------|-----------------------------------|
|---------------------------------|-----------------------------------|
|--4--4-4--4--4-4--4--4-4--4--4-4-|---4---4-4--4--4-4--4--4-4--4--4-4-|
|--5--5-5--5--5-5--5--5-5--5--5-5-|---5---5-5--5--5-5--5--5-5--5--5-5-|
|---------------------------------|-----------------------------------|
|
|  W                                 +W
|---------------------------------|-----------------------------------|
|---------------------------------|-----------------------------------|
|-11------------------------------|-(11)------------------------------|
|---------------------------------|-----------------------------------|
|---------------------------------|-----------------------------------|
|---------------------------------|-----------------------------------|
|
|  E  E    E  E    E  E    E  E       E   E    E  E    E  E    E  E
|-19-17---15--------------15-17---|--19--17---15--------------15-20---|
|------------19---17-19-----------|--------------19---17-19-----------|
|---------------------------------|-----------------------------------|
|---------------------------------|-----------------------------------|
|---------------------------------|-----------------------------------|
|---------------------------------|-----------------------------------|


  C5                                    C
   PM---------------------------------------------------------------------|
   S S  S S  E  S S  S S  S S  E  S S    S S  S S  E  S S  S S  S S  E  S S
|-------------------------------------|-------------------------------------|
|-------------------------------------|-------------------------------------|
|-------------------------------------|-------------------------------------|
|--5-5--5-5--5--5-5--5-5--5-5--5--5-5-|--5-5--5-5--5--5-5--5-5--5-5--5--5-5-|
|--3-3--3-3--3--3-3--3-3--3-3--3--3-3-|--4-4--4-4--4--4-4--4-4--4-4--4--4-4-|
|-------------------------------------|-------------------------------------|
|
|  W                                     W
|-------------------------------------|-------------------------------------|
|-------------------------------------|-------------------------------------|
|-------------------------------------|-------------------------------------|
|-10----------------------------------|-11----------------------------------|
|-------------------------------------|-------------------------------------|
|-------------------------------------|-------------------------------------|
|
|  E    E    E  E    E    E    E  E      E    E    E  E    E    E    E  E
|-19---20---17-20---15---20------20---|-19---20---17-20---15---20------20---|
|-----------------------------19------|-----------------------------19------|
|-------------------------------------|-------------------------------------|
|-------------------------------------|-------------------------------------|
|-------------------------------------|-------------------------------------|
|-------------------------------------|-------------------------------------|


  D5
   PM----------------------------------------------
   S  S  S  S  S  S  S  S  S  S  S  S  S  S  S  S
|-------------------------------------------------|
|-------------------------------------------------|
|-------------------------------------------------|
|--7--7--7--7--7--7--7--7--7--7--7--7--7--7--7--7-|
|--5--5--5--5--5--5--5--5--5--5--5--5--5--5--5--5-|
|-------------------------------------------------|
|
|  W
|-------------------------------------------------|
|-------------------------------------------------|
|-------------------------------------------------|
|-12----------------------------------------------|
|-------------------------------------------------|
|-------------------------------------------------|
|
|  S  S  S  S  S  S  S  S  S  S  S  S  S  S  S  S
|----20----20----20----20----20----20----20----20-|
|-20----19----------------20----19----------------|
|-------------20----19----------------20----19----|
|-------------------------------------------------|
|-------------------------------------------------|
|-------------------------------------------------|


 ------------------------------------------------|
    S   S  S  S  S  S  S  S  S  S  S  S  S  S  S  S
|---------------------------------------------------|
|---------------------------------------------------|
|---------------------------------------------------|
|---7---7--7--7--7--7--7--7--7--7--7--7--7--7--7--7-|
|---5---5--5--5--5--5--5--5--5--5--5--5--5--5--5--5-|
|---------------------------------------------------|
|
|  +W
|---------------------------------------------------|
|---------------------------------------------------|
|---------------------------------------------------|
|-(12)----------------------------------------------|
|---------------------------------------------------|
|---------------------------------------------------|
|
|   S   S  S  S  S  S  S  S  S  S  S  S  S  S  S  S
|------20----20----20----20----20----20----20----20-|
|--20-----19----------------20----19----------------|
|---------------20----19----------------20----19----|
|---------------------------------------------------|
|---------------------------------------------------|
|---------------------------------------------------|


  N.C.
   E  S S  E  S S  E  S S  E  S S     E   S S  E  S S  E  S S  E  S S
|---------------------------------|-----------------------------------|
|---------------------------------|-----------------------------------|
|---------------------------------|-----------------------------------|
|---------------------------------|-----------------------------------|
|--7--7-7--7--7-7--7--7-7--7--7-7-|---7---7-7--7--7-7--7--7-7--7--7-7-|
|---------------------------------|-----------------------------------|
|
| Gtr V
|  W                                 +W
|---------------------------------|-----------------------------------|
|-12------------------------------|-(12)------------------------------|
|---------------------------------|-----------------------------------|
|---------------------------------|-----------------------------------|
|---------------------------------|-----------------------------------|
|---------------------------------|-----------------------------------|
|
|  E  E    E  E    E  E    E  E       E   E    E  E    E  E    E  E
|-19-17---15--------------15-17---|--19--17---15--------------15-17---|
|------------19---17-19-----------|--------------19---17-19-----------|
|---------------------------------|-----------------------------------|
|---------------------------------|-----------------------------------|
|---------------------------------|-----------------------------------|
|---------------------------------|-----------------------------------|


  D
   PM---------------------------------------------------------------|
   E  S S  E  S S  E  S S  E  S S     E   S S  E  S S  E  S S  E  S S
|---------------------------------|-----------------------------------|
|---------------------------------|-----------------------------------|
|---------------------------------|-----------------------------------|
|--4--4-4--4--4-4--4--4-4--4--4-4-|---4---4-4--4--4-4--4--4-4--4--4-4-|
|--5--5-5--5--5-5--5--5-5--5--5-5-|---5---5-5--5--5-5--5--5-5--5--5-5-|
|---------------------------------|-----------------------------------|
|
|  W                                 +W
|-14------------------------------|-(14)------------------------------|
|---------------------------------|-----------------------------------|
|---------------------------------|-----------------------------------|
|---------------------------------|-----------------------------------|
|---------------------------------|-----------------------------------|
|---------------------------------|-----------------------------------|
|
|  E  E    E  E    E  E    E  E       E   E    E  E    E  E    E  E
|-19-17---15--------------15-17---|--19--17---15--------------15-20---|
|------------19---17-19-----------|--------------19---17-19-----------|
|---------------------------------|-----------------------------------|
|---------------------------------|-----------------------------------|
|---------------------------------|-----------------------------------|
|---------------------------------|-----------------------------------|


  C5                                    C
   PM---------------------------------------------------------------------|
   S S  S S  E  S S  S S  S S  E  S S    S S  S S  E  S S  S S  S S  E  S S
|-------------------------------------|-------------------------------------|
|-------------------------------------|-------------------------------------|
|-------------------------------------|-------------------------------------|
|--5-5--5-5--5--5-5--5-5--5-5--5--5-5-|--5-5--5-5--5--5-5--5-5--5-5--5--5-5-|
|--3-3--3-3--3--3-3--3-3--3-3--3--3-3-|--4-4--4-4--4--4-4--4-4--4-4--4--4-4-|
|-------------------------------------|-------------------------------------|
|
|  W                                     W
|-12----------------------------------|-------------------------------------|
|-------------------------------------|-14----------------------------------|
|-------------------------------------|-------------------------------------|
|-------------------------------------|-------------------------------------|
|-------------------------------------|-------------------------------------|
|-------------------------------------|-------------------------------------|
|
|  E    E    E  E    E    E    E  E      E    E    E  E    E    E    E  E
|-19---20---17-20---15---20------20---|-19---20---17-20---15---20------20---|
|-----------------------------19------|-----------------------------19------|
|-------------------------------------|-------------------------------------|
|-------------------------------------|-------------------------------------|
|-------------------------------------|-------------------------------------|
|-------------------------------------|-------------------------------------|


  D5
   PM----------------------------------------------
   S  S  S  S  S  S  S  S  S  S  S  S  S  S  S  S
|-------------------------------------------------|
|-------------------------------------------------|
|-------------------------------------------------|
|--7--7--7--7--7--7--7--7--7--7--7--7--7--7--7--7-|
|--5--5--5--5--5--5--5--5--5--5--5--5--5--5--5--5-|
|-------------------------------------------------|
|
|  W
|-------------------------------------------------|
|-15----------------------------------------------|
|-------------------------------------------------|
|-------------------------------------------------|
|-------------------------------------------------|
|-------------------------------------------------|
|
|  S  S  S  S  S  S  S  S  S  S  S  S  S  S  S  S
|----20----20----20----20----20----20----20----20-|
|-20----19----------------20----19----------------|
|-------------20----19----------------20----19----|
|-------------------------------------------------|
|-------------------------------------------------|
|-------------------------------------------------|


 ------------------------------------------------|
    S   S  S  S  S  S  S  S  S  S  S  S  S  S  S  S
|---------------------------------------------------|
|---------------------------------------------------|
|---------------------------------------------------|
|---7---7--7--7--7--7--7--7--7--7--7--7--7--7--7--7-|
|---5---5--5--5--5--5--5--5--5--5--5--5--5--5--5--5-|
|---------------------------------------------------|
|
|  +W
|---------------------------------------------------|
|-(15)----------------------------------------------|
|---------------------------------------------------|
|---------------------------------------------------|
|---------------------------------------------------|
|---------------------------------------------------|
|
|   S   S  S  S  S  S  S  S  S  S  S  S  S  S  S  S
|------20----20----20----20----20----20----20----20-|
|--20-----19----------------20----19----------------|
|---------------20----19----------------20----19----|
|---------------------------------------------------|
|---------------------------------------------------|
|---------------------------------------------------|


   Chorus
    A5                      E5
     PM----------------------------------------------
     E     E     E     E     E     E     E     E
||--------------------------------------------------|
||o-------------------------------------------------|
||--------------------------------------------------|
||---2-----2-----2-----2----------------------------|
||o--0-----0-----0-----0-----2-----2-----2-----2----|
||---------------------------0-----0-----0-----0----|
|
|   Gtr III
|    S  S  S  S  S  S  S  S  S  S  S  S  S  S  S  S
||--24-17-20-17-19-17-20-17-24-17-20-17-19-17-20-17-|
||o-------------------------------------------------|
||--------------------------------------------------|
||--------------------------------------------------|
||o-------------------------------------------------|
||--------------------------------------------------|


  F5                      G5
 -------------------------------------------|
   E     E     E     E     E     E     E     E
|---------------------------------------------------||
|--------------------------------------------------o||
|---------------------------------------------------||
|---------------------------------------------------||
|--3-----3-----3-----3-----5-----5-----5-----5-----o||
|--1-----1-----1-----1-----3-----3-----3-----3------||
|
|  S  S  S  S  S  S  S  S  S  S  S  S  S  S  S  S
|-24-17-20-17-19-17-20-17-24-17-20-17-19-17-20-17---||
|--------------------------------------------------o||
|---------------------------------------------------||
|---------------------------------------------------||
|--------------------------------------------------o||
|---------------------------------------------------||


    B5                      F#5
     H                       H
||--------------------------------------------------|
||o-------------------------------------------------|
||--------------------------------------------------|
||---4----------------------------------------------|
||o--2-----------------------4----------------------|
||---------------------------2----------------------|
|
|   Gtr III
|    S  S  S  S  S  S  S  S  S  S  S  S  S  S  S  S
||--26-19-22-19-21-19-22-19-26-19-22-19-21-19-22-19-|
||o-------------------------------------------------|
||--------------------------------------------------|
||--------------------------------------------------|
||o-------------------------------------------------|
||--------------------------------------------------|


  G5                      A5
   H                       H
|---------------------------------------------------||
|--------------------------------------------------o||
|---------------------------------------------------||
|---------------------------------------------------||
|--5-----------------------7-----------------------o||
|--3-----------------------5------------------------||
|
|  S  S  S  S  S  S  S  S  S  S  S  S  S  S  S  S
|-26-19-22-19-21-19-22-19-26-19-22-19-21-19-22-19---||
|--------------------------------------------------o||
|---------------------------------------------------||
|---------------------------------------------------||
|--------------------------------------------------o||
|---------------------------------------------------||


    C#5                     G#5
     H                       H
||--------------------------------------------------|
||o-------------------------------------------------|
||--------------------------------------------------|
||---6----------------------------------------------|
||o--4-----------------------6----------------------|
||---------------------------4----------------------|
|
|   Gtr III
|    S  S  S  S  S  S  S  S  S  S  S  S  S  S  S  S
||--28-21-24-21-23-21-24-21-28-21-24-21-23-21-24-21-|
||o-------------------------------------------------|
||--------------------------------------------------|
||--------------------------------------------------|
||o-------------------------------------------------|
||--------------------------------------------------|


  A5                      B5
   H                       H
|---------------------------------------------------||
|--------------------------------------------------o||
|---------------------------------------------------||
|---------------------------------------------------||
|--7-----------------------9-----------------------o||
|--5-----------------------7------------------------||
|
|  S  S  S  S  S  S  S  S  S  S  S  S  S  S  S  S
|-28-21-24-21-23-21-24-21-28-21-24-21-23-21-24-21---||
|--------------------------------------------------o||
|---------------------------------------------------||
|---------------------------------------------------||
|--------------------------------------------------o||
|---------------------------------------------------||


    A5                      E5
     PM----------------------------------------------
     E     E     E     E     E     E     E     E
||--------------------------------------------------|
||o-------------------------------------------------|
||--------------------------------------------------|
||---2-----2-----2-----2----------------------------|
||o--0-----0-----0-----0-----2-----2-----2-----2----|
||---------------------------0-----0-----0-----0----|
|
|   Gtr III
|    S  S  S  S  S  S  S  S  S  S  S  S  S  S  S  S
||--24-17-20-17-19-17-20-17-24-17-20-17-19-17-20-17-|
||o-------------------------------------------------|
||--------------------------------------------------|
||--------------------------------------------------|
||o-------------------------------------------------|
||--------------------------------------------------|


  F5                      G5
 -------------------------------------------|
   E     E     E     E     E     E     E     E      4x
|---------------------------------------------------||
|--------------------------------------------------o||
|---------------------------------------------------||
|---------------------------------------------------||
|--3-----3-----3-----3-----5-----5-----5-----5-----o||
|--1-----1-----1-----1-----3-----3-----3-----3------||
|
|  S  S  S  S  S  S  S  S  S  S  S  S  S  S  S  S   4x
|-24-17-20-17-19-17-20-17-24-17-20-17-19-17-20-17---||
|--------------------------------------------------o||
|---------------------------------------------------||
|---------------------------------------------------||
|--------------------------------------------------o||
|---------------------------------------------------||


   Outro
    Q=80
    N.C.
    Q  Q  Q  Q    Q  Q  Q  Q    Q  Q  Q  Q    Q  Q  Q  Q    4x
||--------------|-------------|-------------|---------------||
||o-------------|-------------|-------------|--------------o||
||--------------|-------------|-------------|---------------||
||--------------|-------------|-------------|---------------||
||o-2--4--5--4--|-2--4--5--4--|-2--4--5--4--|-2--4--5--4---o||
||--------------|-------------|-------------|---------------||
|
|   Q  Q  Q  Q    Q  Q  Q  Q    Q  Q  Q  Q    Q  Q  Q  Q    4x
||--------------|-------------|-------------|---------------||
||o-------------|-------------|-------------|--------------o||
||--4--6--7--6--|-4--6--7--6--|-4--6--7--6--|-4--6--7--6----||
||--------------|-------------|-------------|---------------||
||o-------------|-------------|-------------|--------------o||
||--------------|-------------|-------------|---------------||



Duration Legend
---------------
W - whole; H - half; Q - quarter; E - 8th; S - 16th; T - 32nd; X - 64th; a - acciaccatura
+ - note tied to previous; . - note dotted; .. - note double dotted
Uncapitalized letters represent notes that are staccato (1/2 duration)
Irregular groupings are notated above the duration line
Duration letters will always appear directly above the note/fret number it represents the
duration for.  Duration letters with no fret number below them represent rests.  Multi-
bar rests are notated in the form Wxn, where n is the number of bars to rest for.  Low
melody durations appear below the staff

Tablature Legend
----------------
 h   - hammer-on
 p   - pull-off
 b   - bend
 pb  - pre-bend
 r   - bend release (if no number after the r, then release immediately)
 /\  - slide into or out of (from/to "nowhere")
 s   - legato slide
 S   - shift slide
 - natural harmonic
[n]  - artificial harmonic
n(n) - tapped harmonic
 ~   - vibrato
 tr  - trill
 T   - tap
 TP  - trem. picking
 PM  - palm muting
\n/  - tremolo bar dip; n = amount to dip
 \n  - tremolo bar down
 n/  - tremolo bar up
/n\  - tremolo bar inverted dip
 =   - hold bend; also acts as connecting device for hammers/pulls
 <> - volume swell (louder/softer)
 x   - on rhythm slash represents muted slash
 o   - on rhythm slash represents single note slash

Misc Legend
-----------
 |  - bar
||  - double bar
||o - repeat start
o|| - repeat end
*|  - double bar (ending)
 :  - bar (freetime)
 $  - Segno
 &  - Coda
Tempo markers -  = BPM(8/16=s8/s16), where s8 = swing 8ths, s16 = swing 16ths

Tap to rate this tab
 
# A B C D E F G H I J K L M N O P Q R S T U V W X Y Z