Song name
# A B C D E F G H I J K L M N O P Q R S T U V W X Y Z

Therion - Invocation Of Naammah tab

#----------------------------------PLEASE NOTE---------------------------------#
#This file is the author's own work and represents their interpretation of the #
#song. You may only use this file for private study, scholarship, or research. #
#------------------------------------------------------------------------------#

INVOCATION OF NAAMMAH
As recorded by Therion
(From the 1996 Album THELI)

Transcribed by rumitema@freemail.hu
	

Words by T. Karlsson/C. Johnsson Music by C. Johnsson

Gtr I (Db Gb B E Ab Db) - 'Guitar 1'
Gtr II (Db Gb B E Ab Db) - 'Acoustic'
Gtr III (Db Gb B E Ab Db) - 'Guitar 2'
Gtr IV (Db Gb B E Ab Db) - 'Strings'
Gtr V (Db Gb B E Ab Db) - 'Trumpet'
Gtr VI (Db Gb B E Ab Db) - 'Piano'

   Intro
    Q=164
    N.C.
   4/4
    Gtr II
    E E E E E E E E   E E E E E E E E   E E E E E E E E   E E E E E E E E
||------------------|-----------------|-----------------|-------------------||
||o-----------------|-----------------|-----------------|------------------o||
||------------------|-----------------|-----------------|-------------------||
||------5-------4---|-----7-----5---7-|-----5-------4---|-----7-----5---7---||
||o---7---7---6---6-|---9---9-7---9---|---7---7---6---6-|---9---9-7---9----o||
||--0-------0-------|-0---------------|-0-------0-------|-0-----------------||


  Em        Em        Em    Ebm         Ebm       Ebm
  Gtr I
    PM----|   PM----|           PM----|   PM----|
  E S S S S E S S S S E E    E  S S S S E S S S S E E
|-------------------------|---------------------------|
|-------------------------|---------------------------|
|-------------------------|---------------------------|
|-5---------5---------5-5-|--4----------4---------4-4-|
|-7---------7---------7-7-|--6----------6---------6-6-|
|---0-0-0-0---0-0-0-0-----|-----0-0-0-0---0-0-0-0-----|
|
| Gtr III
| W                         +W
|-------------------------|---------------------------|
|-------------------------|---------------------------|
|-------------------------|---------------------------|
|-------------------------|---------------------------|
|-2-----------------------|-(2)-----------------------|
|-0-----------------------|-(0)-----------------------|


  F#m         F#m       F#m   Em          Em        Em
      PM----|   PM----|           PM----|   PM----|
   E  S S S S E S S S S E E    E  S S S S E S S S S  E  E
|---------------------------|-----------------------------|
|---------------------------|-----------------------------|
|---------------------------|-----------------------------|
|--7----------7---------7-7-|--5----------5----------5--5-|
|--9----------9---------9-9-|--7----------7----------7--7-|
|-----0-0-0-0---0-0-0-0-----|-----0-0-0-0---0-0-0-0-------|
|
| +W                          +H.                    Q
|---------------------------|-----------------------------|
|---------------------------|-----------------------------|
|---------------------------|-----------------------------|
|---------------------------|-----------------------------|
|-(2)-----------------------|-(2)-------------------14\---|
|-(0)-----------------------|-(0)-------------------------|


  Em        Em        Em    Ebm       Ebm       Ebm
  Gtrs I, III
    PM----|   PM----|         PM----|   PM----|
  E S S S S E S S S S E E   E S S S S E S S S S E E
|-------------------------|-------------------------|
|-------------------------|-------------------------|
|-------------------------|-------------------------|
|-5---------5---------5-5-|-4---------4---------4-4-|
|-7---------7---------7-7-|-6---------6---------6-6-|
|---0-0-0-0---0-0-0-0-----|---0-0-0-0---0-0-0-0-----|


  F#m       F#m       F#m   Em        Em        Em
    PM----|   PM----|         PM----|   PM----|
  E S S S S E S S S S E E   E S S S S E S S S S E E
|-------------------------|-------------------------|
|-------------------------|-------------------------|
|-------------------------|-------------------------|
|-7---------7---------7-7-|-5---------5---------5-5-|
|-9---------9---------9-9-|-7---------7---------7-7-|
|---0-0-0-0---0-0-0-0-----|---0-0-0-0---0-0-0-0-----|


   Verse
    $
    Em        Em        Em    Ebm       Ebm       Ebm
      PM----|   PM----|         PM----|   PM----|
    E S S S S E S S S S E E   E S S S S E S S S S E E
||--------------------------|-------------------------|
||o-------------------------|-------------------------|
||--------------------------|-------------------------|
||--5---------5---------5-5-|-4---------4---------4-4-|
||o-7---------7---------7-7-|-6---------6---------6-6-|
||----0-0-0-0---0-0-0-0-----|---0-0-0-0---0-0-0-0-----|


  F#m       F#m       F#m   Em        Em        Em
    PM----|   PM----|         PM----|   PM----|
  E S S S S E S S S S E E   E S S S S E S S S S E E
|-------------------------|-------------------------|
|-------------------------|-------------------------|
|-------------------------|-------------------------|
|-7---------7---------7-7-|-5---------5---------5-5-|
|-9---------9---------9-9-|-7---------7---------7-7-|
|---0-0-0-0---0-0-0-0-----|---0-0-0-0---0-0-0-0-----|


  Em        Em        Em    Ebm       Ebm       Ebm
    PM----|   PM----|         PM----|   PM----|
  E S S S S E S S S S E E   E S S S S E S S S S E E
|-------------------------|-------------------------|
|-------------------------|-------------------------|
|-------------------------|-------------------------|
|-5---------5---------5-5-|-4---------4---------4-4-|
|-7---------7---------7-7-|-6---------6---------6-6-|
|---0-0-0-0---0-0-0-0-----|---0-0-0-0---0-0-0-0-----|


  Em      F#m     Ebm     Em        Em        Em
    PM--|   PM--|   PM|     PM----|   PM----|
  E S S E E S S E E S S   E S S S S E S S S S E E
|-----------------------|--------------------------||
|-----------------------|-------------------------o||
|-----------------------|--------------------------||
|-5-------7-------4-----|-5---------5---------5-5--||
|-7-------9-------6-----|-7---------7---------7-7-o||
|---0-0-0---0-0-0---0-0-|---0-0-0-0---0-0-0-0------||


   Chorus
    (Am/E)    (Asus2/E)   (Am/E)
     PM--------------------------------------------------|
     E  S S E  S  S E S S  E S S    E  S S E S S E S S E E
||-------------------------------|-------------------------|
||o------------------------------|-------------------------|
||-------------------------------|-------------------------|
||-------------------------------|-------------------------|
||o--0--0-0-0--0--0-0-0-0--0-0-0-|--0--0-0-0-0-0-0-0-0-0---|
||-------------------------------|-----------------------3-|
|
|   Gtr II
|    Q.        Q.          Q       +W
||--^0--------!0----------^0-----|-(0)---------------------|
||o-^1--------!0----------^1-----|-(1)---------------------|
||--^2--------!2----------^2-----|-(2)---------------------|
||--^2--------!2----------^2-----|-(2)---------------------|
||o------------------------------|-------------------------|
||-------------------------------|-------------------------|


  (Am/E)    (Asus2/E)   (Am/E)                       G5
   PM----------------------------------------------|
   E  S S E  S  S E S S  E S S    E  S S E S S E S S Q
|------------------------------|------------------------|
|------------------------------|------------------------|
|------------------------------|------------------------|
|------------------------------|------------------------|
|--0--0-0-0--0--0-0-0-0--0-0-0-|--0--0-0-0-0-0-0-0-0-5--|
|------------------------------|---------------------3--|
|
|  Q.        Q.          Q       +W
|-^0--------!0----------^0-----|-(0)--------------------|
|-^1--------!0----------^1-----|-(1)--------------------|
|-^2--------!2----------^2-----|-(2)--------------------|
|-^2--------!2----------^2-----|-(2)--------------------|
|------------------------------|------------------------|
|------------------------------|------------------------|


  (Em/B)    (Esus2/B)   (Em/B)
   PM--------------------------------------------------|
   E  S S E  S  S E S S  E S S    E  S S E S S E S S E E
|------------------------------|-------------------------|
|------------------------------|-------------------------|
|------------------------------|-------------------------|
|------------------------------|-------------------------|
|------------------------------|-------------------------|
|--0--0-0-0--0--0-0-0-0--0-0-0-|--0--0-0-0-0-0-0-0-0-2-3-|
|
|  Q.        Q.          Q       +W
|-^7--------!7----------^7-----|-(7)---------------------|
|-^8--------!7----------^8-----|-(8)---------------------|
|-^9--------!9----------^9-----|-(9)---------------------|
|-^9--------!9----------^9-----|-(9)---------------------|
|------------------------------|-------------------------|
|------------------------------|-------------------------|


                                                D.S.
  (Em/B)    (Esus2/B)   (Em/B)                 F#5G5
   PM----------------------------------------|
   E  S S E  S  S E S S  E S S    E  S S E S S Q  Q
|------------------------------|----------------------||
|------------------------------|---------------------o||
|------------------------------|----------------------||
|------------------------------|----------------------||
|------------------------------|---------------4--5--o||
|--0--0-0-0--0--0-0-0-0--0-0-0-|--0--0-0-0-0-0-2--3---||
|
|  Q.        Q.          Q       +W
|-^7--------!7----------^7-----|-(7)------------------||
|-^8--------!7----------^8-----|-(8)-----------------o||
|-^9--------!9----------^9-----|-(9)------------------||
|-^9--------!9----------^9-----|-(9)------------------||
|------------------------------|---------------------o||
|------------------------------|----------------------||


   Interlude
    B5                        E5
    Gtr IV
     E  E  E  E  E  E  E  E    E  E  E  E  E  E  E  E
||--------------------------|-------15-17-15----------|
||o----16-17-19-17-16----16-|-17-19----------19-17-19-|
||--16----------------16----|-------------------------|
||--------------------------|-------------------------|
||o-------------------------|-------------------------|
||--------------------------|-------------------------|
|
|   Gtr V
|    Q     H           Q       Q     H           Q
||--------------------------|-------------------------|
||o-------------------------|-------------------------|
||--------------------------|-------------------------|
||--------------------------|--9-----------------9----|
||o--9-----------------9----|--7-----------------7----|
||---7-----------------7----|-------------------------|


  B5                        E5  F#5 G5  A5
   E  E  E  E  E  E  E  E    Q   Q   Q   Q
|----------19-17-15-------|---------15--17----||
|----16-17----------19-16-|-17--19-----------o||
|-16----------------------|-------------------||
|-------------------------|-------------------||
|-------------------------|------------------o||
|-------------------------|-------------------||
|
|  Q     H           Q       Q   Q   Q   Q
|-------------------------|-------------------||
|-------------------------|------------------o||
|-------------------------|-------------------||
|-------------------------|--9--11--12--14----||
|--9----------------------|--7---9--10--12---o||
|--7----------------------|-------------------||


  E5 F#5G5 A5     B5
  Gtrs I, III
  Q  Q  Q  Q      W          +W
|-------------||-----------|--------|
|-------------||o----------|--------|
|-------------||-----------|--------|
|----------2--||--4--------|-(4)----|
|-2--4--5--0--||o-2--------|-(2)----|
|-0--2--3-----||-----------|--------|


  E5                      B5                      E5
  Gtr I
  W          +W           W          +W           W           Q   Q  Q   Q
|----------|------------|----------|------------|----------|------------------||
|----------|------------|----------|------------|----------|-----------------o||
|----------|------------|----------|------------|-4--------|------------------||
|----------|------------|-4--------|-(4)--------|-2--------|--5---4--2---4----||
|-2--------|-(2)--------|-2--------|-(2)--------|----------|-----------------o||
|-0--------|-(0)--------|----------|------------|----------|------------------||
|
| Gtr III
| W          +W           W          +W           W           Q   Q  Q   Q
|----------|------------|----------|------------|----------|------------------||
|----------|------------|----------|------------|----------|-----------------o||
|----------|------------|----------|------------|-4--------|-12--11--9--11----||
|----------|------------|-4--------|-(4)--------|-2--------|------------------||
|-2--------|-(2)--------|-2--------|-(2)--------|----------|-----------------o||
|-0--------|-(0)--------|----------|------------|----------|------------------||


    N.C.
    PM---------------------------------
    E E E E E E E E   E E E E E E E E
||------------------|-----------------|
||o-----------------|-----------------|
||------------------|-----------------|
||------------------|-----------------|
||o---------6-6-6-6-|-9-9-9-9-6-6-6-6-|
||--7-7-7-7---------|-----------------|
|
|   PM---------------------------------
|   E E E E E E E E   E E E E E E E E
||------------------|-----------------|
||o-----------------|-----------------|
||------------------|-----------------|
||------------------|-7-7-7-7---------|
||o-6-6-6-6-9-9-9-9-|---------9-9-9-9-|
||------------------|-----------------|


 --------------------------------------------|
   E  E  E  E  E  E  E  E   E E E E  E  E  E  E
|-------------------------|----------------------|
|-------------------------|----------------------|
|-------------------------|----------------------|
|-------------------------|-9-9-9-9--------------|
|--7--7--7--7-10-10-10-10-|---------10-10-10-10--|
|-------------------------|----------------------|
|
|--------------------------------------------|
|  E  E  E  E  E  E  E  E   E E E E  E  E  E  E
|-------------------------|----------------------|
|-------------------------|----------------------|
|-------------------------|-9-9-9-9--------------|
|--------------9--9--9--9-|----------9--9--9--9--|
|-10-10-10-10-------------|----------------------|
|-------------------------|----------------------|


  PM---------------------------------
  E E E E E E E E   E E E E E E E E
|-----------------|-----------------|
|-----------------|-----------------|
|-----------------|-----------------|
|-----------------|-----------------|
|---------6-6-6-6-|-9-9-9-9-6-6-6-6-|
|-7-7-7-7---------|-----------------|
|
| PM---------------------------------
| E E E E E E E E   E E E E E E E E
|-----------------|-----------------|
|-----------------|-----------------|
|-----------------|-----------------|
|-----------------|-7-7-7-7---------|
|-6-6-6-6-9-9-9-9-|---------9-9-9-9-|
|-----------------|-----------------|


 ------------------------------------------------|
   E  E  E  E  E  E  E  E    E  E  E  E  E  E  E  E
|-------------------------|--------------------------||
|-------------------------|-------------------------o||
|-------------------------|--------------------------||
|-------------------------|--------------------------||
|--7--7--7--7--7--7--7--7-|--7--7--7--7--7--7--7--7-o||
|-------------------------|--------------------------||
|
|------------------------------------------------|
|  E  E  E  E  E  E  E  E    E  E  E  E  E  E  E  E
|-------------------------|--------------------------||
|-------------------------|-------------------------o||
|-------------------------|--------------------------||
|-------------------------|--------------------------||
|-10-10-10-10-10-10-10-10-|-10-10-10-10-10-10-10-10-o||
|-------------------------|--------------------------||


    E5     E5    E5    Eb5    Eb5   Eb5
     W                  W
||-------------------|------------------|
||o------------------|------------------|
||--12---------------|-11---------------|
||-------------------|------------------|
||o-10---------------|--9---------------|
||-------------------|------------------|
|
|      PM|   PM|          PM|   PM|
|    E E E E E E E E    E E E E E E E E
||-------------------|------------------|
||o------------------|------------------|
||-------------------|------------------|
||---9-----9-----9-9-|--8-----8-----8-8-|
||o--7-----7-----7-7-|--6-----6-----6-6-|
||-----0-0---0-0-----|----0-0---0-0-----|


  F#5    F#5    F#5     E5     E5    E5
   W                     W
|---------------------|-------------------|
|---------------------|-------------------|
|-14------------------|-16----------------|
|---------------------|-------------------|
|-12------------------|-14----------------|
|---------------------|-------------------|
|
|    PM|    PM|            PM|   PM|
|  E E E  E E E  E  E    E E E E E E E E
|---------------------|-------------------|
|---------------------|-------------------|
|---------------------|-------------------|
|-11-----11-----11-11-|--9-----9-----9-9--|
|--9------9------9--9-|--7-----7-----7-7--|
|----0-0----0-0-------|----0-0---0-0------|


  E5     E5    E5    Eb5    Eb5   Eb5
   W                  W
|------------------|------------------|
|------------------|------------------|
|-12---------------|-11---------------|
|------------------|------------------|
|-10---------------|--9---------------|
|------------------|------------------|
|
|    PM|   PM|          PM|   PM|
|  E E E E E E E E    E E E E E E E E
|------------------|------------------|
|------------------|------------------|
|------------------|------------------|
|--9-----9-----9-9-|--8-----8-----8-8-|
|--7-----7-----7-7-|--6-----6-----6-6-|
|----0-0---0-0-----|----0-0---0-0-----|


 1.
  F#5    F#5    F#5     E5     E5    E5
   W                     W
|---------------------|-------------------||
|---------------------|------------------o||
|-14------------------|-12----------------||
|---------------------|-------------------||
|-12------------------|-10---------------o||
|---------------------|-------------------||
|
|    PM|    PM|            PM|   PM|
|  E E E  E E E  E  E    E E E E E E E E
|---------------------|-------------------||
|---------------------|------------------o||
|---------------------|-------------------||
|-11-----11-----11-11-|--9-----9-----9-9--||
|--9------9------9--9-|--7-----7-----7-7-o||
|----0-0----0-0-------|----0-0---0-0------||


  2.
  F#5    F#5    F#5     E5    E5    E5    E5
                                          >
   W                    W                 W
|---------------------|-----------------|-----------------|
|---------------------|-----------------|-----------------|
|--7------------------|-9---------------|-----------------|
|---------------------|-----------------|-----------------|
|--5------------------|-7---------------|-2---------------|
|---------------------|-----------------|-0---------------|
|
|                                         >
|    PM|    PM|           PM|   PM|
|  E E E  E E E  E  E   E E E E E E E E   W
|---------------------|-----------------|-----------------|
|---------------------|-----------------|-----------------|
|---------------------|-----------------|-----------------|
|-11-----11-----11-11-|-9-----9-----9-9-|-----------------|
|--9------9------9--9-|-7-----7-----7-7-|-2---------------|
|----0-0----0-0-------|---0-0---0-0-----|-0---------------|
|
| Gtr II
|  W                    W                 E E E E E E E E
|---------------------|-----------------|-----------------|
|---------------------|-----------------|-----------------|
|---------------------|-----------------|-----------------|
|---------------------|-----------------|-----5-------4---|
|---------------------|-----------------|---7---7---6---6-|
|---------------------|-----------------|-0-------0-------|


  N.C.
  Gtr II
  E E E E E E E E   E E E E E E E E   E E E E E E E E
|-----------------|-----------------|-----------------|
|-----------------|-----------------|-----------------|
|-----------------|-----------------|-----------------|
|-----7-----5---7-|-----5-------4---|-----7-----5---7-|
|---9---9-7---9---|---7---7---6---6-|---9---9-7---9---|
|-0---------------|-0-------0-------|-0---------------|


   Verse
    Em        Em        Em    Ebm       Ebm       Ebm
    Gtrs I, III
      PM----|   PM----|         PM----|   PM----|
    E S S S S E S S S S E E   E S S S S E S S S S E E
||--------------------------|-------------------------|
||o-------------------------|-------------------------|
||--------------------------|-------------------------|
||--5---------5---------5-5-|-4---------4---------4-4-|
||o-7---------7---------7-7-|-6---------6---------6-6-|
||----0-0-0-0---0-0-0-0-----|---0-0-0-0---0-0-0-0-----|


  F#m       F#m       F#m   Em        Em        Em
    PM----|   PM----|         PM----|   PM----|
  E S S S S E S S S S E E   E S S S S E S S S S E E
|-------------------------|-------------------------|
|-------------------------|-------------------------|
|-------------------------|-------------------------|
|-7---------7---------7-7-|-5---------5---------5-5-|
|-9---------9---------9-9-|-7---------7---------7-7-|
|---0-0-0-0---0-0-0-0-----|---0-0-0-0---0-0-0-0-----|


  Em        Em        Em    Ebm       Ebm       Ebm
    PM----|   PM----|         PM----|   PM----|
  E S S S S E S S S S E E   E S S S S E S S S S E E
|-------------------------|-------------------------|
|-------------------------|-------------------------|
|-------------------------|-------------------------|
|-5---------5---------5-5-|-4---------4---------4-4-|
|-7---------7---------7-7-|-6---------6---------6-6-|
|---0-0-0-0---0-0-0-0-----|---0-0-0-0---0-0-0-0-----|


                         1.
  Em      F#m     Ebm     Em        Em        Em
  Gtr I
    PM--|   PM--|   PM|     PM----|   PM----|
  E S S E E S S E E S S   E S S S S E S S S S E E
|-----------------------|--------------------------||
|-----------------------|-------------------------o||
|-----------------------|--------------------------||
|-5-------7-------4-----|-5---------5---------5-5--||
|-7-------9-------6-----|-7---------7---------7-7-o||
|---0-0-0---0-0-0---0-0-|---0-0-0-0---0-0-0-0------||
|
| Gtr III
|   PM--|   PM--|   PM|     PM----|   PM----|
| E S S E E S S E E S S   E S S S S E S S S S E E
|-----------------------|--------------------------||
|-----------------------|-------------------------o||
|-----------------------|--------------------------||
|-5-------7-------4-----|-5---------5---------5-5--||
|-7-------9-------6-----|-7---------7---------7-7-o||
|---0-0-0---0-0-0---0-0-|---0-0-0-0---0-0-0-0------||


 2.
  Em        Em
    PM----|   PM----|
  E S S S S E S S S S E  E
|----------------------------|
|----------------------------|
|---------------------9-11---|
|-5---------5----------------|
|-7---------7----------------|
|---0-0-0-0---0-0-0-0--------|
|
|   PM----|   PM----|
| E S S S S E S S S S E  E
|----------------------------|
|----------------------------|
|----------------------------|
|-5---------5---------5--5---|
|-7---------7---------7--7---|
|---0-0-0-0---0-0-0-0--------|


   Lead: J. Mellberg
    (Am/E)    (Asus2/E)   (Am/E)
    Gtr I
     H.                    E  E      H.                 E  E
||--------------------------------|--------------------------|
||o-------------------------------|-10-----------------------|
||--12--------------------11-12---|---------------------9-11-|
||--------------------------------|--------------------------|
||o-------------------------------|--------------------------|
||--------------------------------|--------------------------|
|
|   Gtr II
|    Q.        Q.          Q        +W
||--^0--------!0----------^0------|-(0)----------------------|
||o-^1--------!0----------^1------|-(1)----------------------|
||--^2--------!2----------^2------|-(2)----------------------|
||--^2--------!2----------^2------|-(2)----------------------|
||o-------------------------------|--------------------------|
||--------------------------------|--------------------------|
|
|   Gtr III
|    PM---------------------------------------------------|
|    E  S S E  S  S E S S  E  S S    E  S S E S S E S S E  E
||--------------------------------|--------------------------|
||o-------------------------------|--------------------------|
||--------------------------------|--------------------------|
||--------------------------------|--------------------------|
||o--0--0-0-0--0--0-0-0-0--0--0-0-|--0--0-0-0-0-0-0-0-0-0----|
||--------------------------------|------------------------3-|


  (Am/E)    (Asus2/E)   (Am/E)                        G5
   H.                    E  E      H.                  E  E
|-------------------------------|---------------------------|
|-------------------------------|-10------------------------|
|-12--------------------11-12---|---------------------11-12-|
|-------------------------------|---------------------------|
|-------------------------------|---------------------------|
|-------------------------------|---------------------------|
|
|  Q.        Q.          Q        +W
|-^0--------!0----------^0------|-(0)-----------------------|
|-^1--------!0----------^1------|-(1)-----------------------|
|-^2--------!2----------^2------|-(2)-----------------------|
|-^2--------!2----------^2------|-(2)-----------------------|
|-------------------------------|---------------------------|
|-------------------------------|---------------------------|
|
|  PM-----------------------------------------------|
|  E  S S E  S  S E S S  E  S S    E  S S E S S E S S  Q
|-------------------------------|---------------------------|
|-------------------------------|---------------------------|
|-------------------------------|---------------------------|
|-------------------------------|---------------------------|
|--0--0-0-0--0--0-0-0-0--0--0-0-|--0--0-0-0-0-0-0-0-0--5----|
|-------------------------------|----------------------3----|


  (Em/B)    (Esus2/B)   (Em/B)
   H.                    +E   S  S    H.                  E E
|----------------------------------|--------------------------|
|----------------------------------|--------------------------|
|-11--------------------(11)-12-11-|--9---------------------9-|
|----------------------------------|---------------------12---|
|----------------------------------|--------------------------|
|----------------------------------|--------------------------|
|
|  Q.        Q.           Q          +W
|-^7--------!7----------^-7--------|-(7)----------------------|
|-^8--------!7----------^-8--------|-(8)----------------------|
|-^9--------!9----------^-9--------|-(9)----------------------|
|-^9--------!9----------^-9--------|-(9)----------------------|
|----------------------------------|--------------------------|
|----------------------------------|--------------------------|
|
|  PM-------------------------------------------------------|
|  E  S S E  S  S E S S   E   S  S    E  S S E S S E S S  E E
|----------------------------------|--------------------------|
|----------------------------------|--------------------------|
|----------------------------------|--------------------------|
|----------------------------------|--------------------------|
|----------------------------------|--------------------------|
|--0--0-0-0--0--0-0-0-0---0---0--0-|--0--0-0-0-0-0-0-0-0--2-3-|


  (Em/B)    (Esus2/B)   (Em/B)
   H.                    +E   S  S
|----------------------------------|
|----------------------------------|
|-11--------------------(11)-12-11-|
|----------------------------------|
|----------------------------------|
|----------------------------------|
|
|  Q.        Q.           Q
|-^7--------!7----------^-7--------|
|-^8--------!7----------^-8--------|
|-^9--------!9----------^-9--------|
|-^9--------!9----------^-9--------|
|----------------------------------|
|----------------------------------|
|
|  PM-------------------------------
|  E  S S E  S  S E S S   E   S  S
|----------------------------------|
|----------------------------------|
|----------------------------------|
|----------------------------------|
|----------------------------------|
|--0--0-0-0--0--0-0-0-0---0---0--0-|


 1.                        2.
                F#5G5                   F#5G5
   H.              E  E     W
|------------------------||--------------------|
|-----------------------o||--------------------|
|--9---------------9-11--||-9------------------|
|------------------------||--------------------|
|-----------------------o||--------------------|
|------------------------||--------------------|
|
| +W                        W
|-(7)--------------------||--------------------|
|-(8)-------------------o||--------------------|
|-(9)--------------------||--------------------|
|-(9)--------------------||--------------------|
|-----------------------o||--------------------|
|------------------------||--------------------|
|
|-------------|
|  E  S S E S S Q  Q        E S S E S S Q  Q
|------------------------||--------------------|
|-----------------------o||--------------------|
|------------------------||--------------------|
|------------------------||--------------------|
|---------------4--5----o||-------------4--5---|
|--0--0-0-0-0-0-2--3-----||-0-0-0-0-0-0-2--3---|


 Interlude
  Q=82
  E5
  Gtr VI
   S  S  S  S  S  S  S  S  S  S  S  S  S  S  S  S
|-------------------------------------------------|
|----20-17-20----20-17-20----20-17-20----20-17-20-|
|-16----------16----------16----------16----------|
|-------------------------------------------------|
|-------------------------------------------------|
|-------------------------------------------------|
|
| Gtr VI
|  W
|-------------------------------------------------|
|-------------------------------------------------|
|-------------------------------------------------|
|--9----------------------------------------------|
|--7----------------------------------------------|
|--0----------------------------------------------|
|
| Gtr III
|  E     E     Q           H
|-------------------------------------------------|
|-------------------------------------------------|
|-------------------------------------------------|
|-------------------------------------------------|
|--2----------------------------------------------|
|--0----------------------------------------------|


   S  S  S  S  S  S  S  S  S  S  S  S  S  S  S  S
|-------------------------------------------------|
|----22-19-22----22-19-22----22-19-22----22-19-22-|
|-17----------17----------17----------17----------|
|-------------------------------------------------|
|-------------------------------------------------|
|-------------------------------------------------|
|
|  W
|-------------------------------------------------|
|-------------------------------------------------|
|-------------------------------------------------|
|-------------------------------------------------|
|--9----------------------------------------------|
|--8----------------------------------------------|
|
|  W
|-------------------------------------------------|
|-------------------------------------------------|
|-------------------------------------------------|
|-------------------------------------------------|
|-------------------------------------------------|
|-------------------------------------------------|


  Gtr VI
   S  S  S  S  S  S  S  S  S  S  S  S  S  S  S  S
|-------------------------------------------------|
|----19-16-19----19-16-19----19-16-19----19-16-19-|
|-14----------14----------14----------14----------|
|-------------------------------------------------|
|-------------------------------------------------|
|-------------------------------------------------|
|
|  W
|-------------------------------------------------|
|-------------------------------------------------|
|-------------------------------------------------|
|-------------------------------------------------|
|--6----------------------------------------------|
|--5----------------------------------------------|


   S  S  S  S  S  S  S  S  S  S  S  S  S  S  S  S
|-------------------------------------------------|
|----20-17-20----20-17-20----19-16-19----19-16-19-|
|-16----------16----------16----------16----------|
|-------------------------------------------------|
|-------------------------------------------------|
|-------------------------------------------------|
|
|  H                       H
|-------------------------------------------------|
|-------------------------------------------------|
|-------------------------------------------------|
|--4-----------------------8----------------------|
|--2-----------------------6----------------------|
|--2-----------------------6----------------------|


   S  S  S  S  S  S  S  S  S  S  S  S  S  S  S  S
|-19----------19----------19----------19----------|
|----20-17-20----20-17-20----20-17-20----20-17-20-|
|-------------------------------------------------|
|-------------------------------------------------|
|-------------------------------------------------|
|-------------------------------------------------|
|
|  W
|--7----------------------------------------------|
|-------------------------------------------------|
|-------------------------------------------------|
|--9----------------------------------------------|
|--7----------------------------------------------|
|--0----------------------------------------------|


   S  S  S  S  S  S  S  S  S  S  S  S  S  S  S  S
|-20----------20----------20----------20----------|
|----22-19-22----22-19-22----22-19-22----22-19-22-|
|-------------------------------------------------|
|-------------------------------------------------|
|-------------------------------------------------|
|-------------------------------------------------|
|
|  W
|--8----------------------------------------------|
|-------------------------------------------------|
|-------------------------------------------------|
|-------------------------------------------------|
|--9----------------------------------------------|
|--8----------------------------------------------|


   S  S  S  S  S  S  S  S  S  S  S  S  S  S  S  S
|-17----------17----------17----------17----------|
|----19-16-19----19-16-19----19-16-19----19-16-19-|
|-------------------------------------------------|
|-------------------------------------------------|
|-------------------------------------------------|
|-------------------------------------------------|
|
|  W
|--5----------------------------------------------|
|-------------------------------------------------|
|-------------------------------------------------|
|-------------------------------------------------|
|--6----------------------------------------------|
|--5----------------------------------------------|


   S  S  S  S  S  S  S  S  S  S  S  S  S  S  S  S
|-19----------19----------19----------19----------|
|----20-17-20----20-17-20----19-16-19----19-16-19-|
|-------------------------------------------------|
|-------------------------------------------------|
|-------------------------------------------------|
|-------------------------------------------------|
|
|  H                       H
|--7-----------------------7----------------------|
|-------------------------------------------------|
|-------------------------------------------------|
|--4-----------------------8----------------------|
|--2-----------------------6----------------------|
|--2-----------------------6----------------------|


 Lead: J. Mellberg
  Q=164
  E5                          C
  Gtr I
   W          +H     Q   Q    H.       E E    H.      E E
|-----------|---------------|--------------|--------------|
|-----------|---------------|--------------|--------------|
|-----------|---------------|--------------|--------------|
|-----------|---------------|--------------|--------------|
|-/7--------|-(7)----9--10--|-9-------10-9-|--7-------7-9-|
|-----------|---------------|--------------|--------------|
|
| Gtr III
|  W          +W              W              +W
|-----------|---------------|--------------|--------------|
|-----------|---------------|--------------|--------------|
|-----------|---------------|--------------|--------------|
|-----------|---------------|-4------------|-(4)----------|
|--2--------|-(2)-----------|-3------------|-(3)----------|
|--0--------|-(0)-----------|--------------|--------------|


  A5                         B5         Eb5
  W          +H.       E E   W          W
|----------|---------------|----------|------|
|----------|---------------|----------|------|
|----------|---------------|----------|-8----|
|-7--------|-(7)---------7-|-9--------|------|
|----------|----------10---|----------|------|
|----------|---------------|----------|------|
|
| W          +W              W          W
|----------|---------------|----------|------|
|----------|---------------|----------|------|
|----------|---------------|----------|------|
|-2--------|-(2)-----------|-4--------|-8----|
|-0--------|-(0)-----------|-2--------|-6----|
|----------|---------------|----------|------|


 Lead C. Johnsson
  E5                                     C
   W            W                         W             +W
|-----------|--------------------------|--------------|------------------|
|-----------|--------------------------|--------------|------------------|
|--9--------|--------------------------|--------------|------------------|
|-----------|--------------------------|--4-----------|-(4)--------------|
|--2--------|--(2)---------------------|--3-----------|-(3)--------------|
|--0--------|--(0)---------------------|--------------|------------------|
|  W           +W
|
|  W           +H      +E   E  S  S  E    H.       Q     H.       +E   E
|-19--------|-(19)----(19)-15-19-17-15-|-17-------15--|------------------|
|-----------|--------------------------|--------------|-17-------(17)----|
|-----------|--------------------------|--------------|---------------16-|
|-----------|--------------------------|--------------|------------------|
|-----------|--------------------------|--------------|------------------|
|-----------|--------------------------|--------------|------------------|


  A5
   W               +W
|----------------|----------------|
|----------------|----------------|
|----------------|----------------|
|--2-------------|-(2)------------|
|--0-------------|-(0)------------|
|----------------|----------------|
|
|  H.       E  E    H.       E  E
|----------------|----------------|
|----------------|----------------|
|----------------|----------------|
|-17-------19-17-|-16-------17-19-|
|----------------|----------------|
|----------------|----------------|


  B5                        Eb5
   W                         W
|-------------------------|-------------------------|
|-------------------------|-------------------------|
|-------------------------|-------------------------|
|--4----------------------|--8----------------------|
|--2----------------------|--6----------------------|
|-------------------------|-------------------------|
|
|  E  E  E  E  E  E  E  E    E  E  E  E  E  E  E  E
|-------------------------|-------------------------|
|-------16-17-16----------|-------16-17-16----------|
|-16-17----------17-16-17-|-16-17----------17-16-17-|
|-------------------------|-------------------------|
|-------------------------|-------------------------|
|-------------------------|-------------------------|


 Lead: J. Mellberg
  E5                                 C
   H         +H        +W             H        +H        H.       Q
|-------------------|--------------|------------------|--------------|
|-15b17=====(15)----|-(15)r--------|-15b17----(15)----|-15-------13--|
|-------------------|--------------|------------------|--------------|
|-------------------|--------------|------------------|--------------|
|-------------------|--------------|------------------|--------------|
|-------------------|--------------|------------------|--------------|
|
|  W                    W             W                 +W
|-------------------|--------------|------------------|--------------|
|-------------------|--------------|------------------|--------------|
|-16----------------|--------------|------------------|--------------|
|-------------------|--------------|--4---------------|-(4)----------|
|--2----------------|--(2)---------|--3---------------|-(3)----------|
|--0----------------|--(0)---------|------------------|--------------|
   W                   +W


  A5
   E  E  Q   E  E  E  E    E   E  Q   H
|-----------------------|------------------|
|-12-13-12--12-13-12----|-12--13-12--------|
|--------------------14-|------------12----|
|-----------------------|------------------|
|-----------------------|------------------|
|-----------------------|------------------|
|
|  W                      +W
|-----------------------|------------------|
|-----------------------|------------------|
|-----------------------|------------------|
|--2--------------------|-(2)--------------|
|--0--------------------|-(0)--------------|
|-----------------------|------------------|


  B5                        Eb5
   E  E  E  E  E  E  E  E    E  E  E  E  E  E  E  E
|-------------------------|-------------------------|
|-------------------------|-------------------------|
|-11-12-11-12-14-12-11-12-|-11-12-11----11----------|
|-------------------------|----------14----14-14-13-|
|-------------------------|-------------------------|
|-------------------------|-------------------------|
|
|  W                         W
|-------------------------|-------------------------|
|-------------------------|-------------------------|
|-------------------------|-------------------------|
|--4----------------------|--8----------------------|
|--2----------------------|--6----------------------|
|-------------------------|-------------------------|


 Lead: C. Johnsson
  E5
   W
|-----------------------------------------|
|-----------------------------------------|
|-----------------------------------------|
|-14--------------------------------------|
|--2--------------------------------------|
|--0--------------------------------------|
|  W
|
|  T    T    T    T    T    T    T    T
|  S S  S S  S S  S S  S S  S S  S S  S S
|-19p7-19p7-19p7-19p7-19p7-19p7-19p7-19p7-|
|-----------------------------------------|
|-----------------------------------------|
|-----------------------------------------|
|-----------------------------------------|
|-----------------------------------------|


  E5
   W
|-----------------------------------------|
|-----------------------------------------|
|-----------------------------------------|
|-----------------------------------------|
|-(2)-------------------------------------|
|-(0)-------------------------------------|
| +W
|
|  T    T    T    T    T    T    T    T
|  S S  S S  S S  S S  S S  S S  S S  S S
|-15p7-15p7-15p7-15p7-15p7-15p7-15p7-15p7-|
|-----------------------------------------|
|-----------------------------------------|
|-----------------------------------------|
|-----------------------------------------|
|-----------------------------------------|


  C
   W
|-------------------------------------------------|
|-------------------------------------------------|
|-------------------------------------------------|
|--4----------------------------------------------|
|--3----------------------------------------------|
|-------------------------------------------------|
|
|  T     T     T     T     T     T     T     T
|  S  S  S  S  S  S  S  S  S  S  S  S  S  S  S  S
|-22p10-22p10-22p10-22p10-22p10-22p10-22p10-22p10-|
|-------------------------------------------------|
|-------------------------------------------------|
|-------------------------------------------------|
|-------------------------------------------------|
|-------------------------------------------------|


  +W
|-------------------------------------------------|
|-------------------------------------------------|
|-------------------------------------------------|
|-(4)---------------------------------------------|
|-(3)---------------------------------------------|
|-------------------------------------------------|
|
|  T     T     T     T     T     T     T     T
|  S  S  S  S  S  S  S  S  S  S  S  S  S  S  S  S
|-20p10-20p10-20p10-20p10-20p10-20p10-20p10-20p10-|
|-------------------------------------------------|
|-------------------------------------------------|
|-------------------------------------------------|
|-------------------------------------------------|
|-------------------------------------------------|


  A5
   E  E  E  E  E  E  E  E    E   E  E  E  E  E  E  E
|----------19-------------|-22--20-19----------------|
|-19-20-22----22-20-19-20-|-----------22-20-19-20-22-|
|-------------------------|--------------------------|
|-------------------------|--------------------------|
|-------------------------|--------------------------|
|-------------------------|--------------------------|
|
|  W                        +W
|-------------------------|--------------------------|
|-------------------------|--------------------------|
|-------------------------|--------------------------|
|--2----------------------|-(2)----------------------|
|--0----------------------|-(0)----------------------|
|-------------------------|--------------------------|


 Outro
  H.=H                                            Q=80
  Gtr V
   Q   +Q    +Q    +Q      Q   +Q    +Q    +Q      W           +W
|-----------------------|-----------------------|-----------|---------*|
|-17--(17)--(17)--(17)--|-16--(16)--(16)--(16)--|-17--------|-(17)----*|
|-----------------------|-----------------------|-----------|---------*|
|-----------------------|-----------------------|-----------|---------*|
|--2----2-----2-----2---|--1----1-----1-----1---|--2--------|--(2)----*|
|-----------------------|-----------------------|-----------|---------*|
|  Q    Q     Q     Q      Q    Q     Q     Q      W
|
|  Q    Q     Q     Q      Q    Q     Q     Q      W           +W
|-----------------------|-----------------------|-----------|---------*|
|-----------------------|-----------------------|-----------|---------*|
|--9----9-----9-----9---|--8----8-----8-----8---|--9--------|--(9)----*|
|-----------------------|-----------------------|-----------|---------*|
|--7----7-----7-----7---|--6----6-----6-----6---|--7--------|--(7)----*|
|-----------------------|-----------------------|--0--------|--(0)----*|



Duration Legend
---------------
W - whole; H - half; Q - quarter; E - 8th; S - 16th; T - 32nd; X - 64th; a - acciaccatura
+ - note tied to previous; . - note dotted; .. - note double dotted
Uncapitalized letters represent notes that are staccato (1/2 duration)
Irregular groupings are notated above the duration line
Duration letters will always appear directly above the note/fret number it represents the
duration for.  Duration letters with no fret number below them represent rests.  Multi-
bar rests are notated in the form Wxn, where n is the number of bars to rest for.  Low
melody durations appear below the staff

Tablature Legend
----------------
 h   - hammer-on
 p   - pull-off
 b   - bend
 pb  - pre-bend
 r   - bend release (if no number after the r, then release immediately)
 /\  - slide into or out of (from/to "nowhere")
 s   - legato slide
 S   - shift slide
 - natural harmonic
[n]  - artificial harmonic
n(n) - tapped harmonic
 ~   - vibrato
 tr  - trill
 T   - tap
 TP  - trem. picking
 PM  - palm muting
\n/  - tremolo bar dip; n = amount to dip
 \n  - tremolo bar down
 n/  - tremolo bar up
/n\  - tremolo bar inverted dip
 =   - hold bend; also acts as connecting device for hammers/pulls
 <> - volume swell (louder/softer)
 x   - on rhythm slash represents muted slash
 o   - on rhythm slash represents single note slash

Misc Legend
-----------
 |  - bar
||  - double bar
||o - repeat start
o|| - repeat end
*|  - double bar (ending)
 :  - bar (freetime)
 $  - Segno
 &  - Coda
Tempo markers -  = BPM(8/16=s8/s16), where s8 = swing 8ths, s16 = swing 16ths

Tap to rate this tab
 
# A B C D E F G H I J K L M N O P Q R S T U V W X Y Z