Song name
# A B C D E F G H I J K L M N O P Q R S T U V W X Y Z

Therion - Typhon tab

Therion-Typhon
...adrian_asm-93@hotmail.com

Riff#1   3x
(Hard to hear. With Chorus or flanger, or somethink like that)
|-------------------------------------------------------------------|
|-------------------------------------------------------------------|
|-------------------------------------------------------------------|
|------------------------9-9-9-8------------------------------------|
|22-2-2-2-2-2-22-2-2-2---8-8-8-7------------------------------------|
|00-0-0-0-0-0-00-0-0-0----------------------------------------------|
 .. . . . . . .. . . .

Riff#2
|-------------------------------------------------------------------|
|-------------------------------------------------------------------|
|-------------------------------------------------------------------|
|-------------------------------------------------------------------|
|-------3--3-4-------------6-4-------3--3-4---------8-6--6--4-------|
|0-4-5---------0--0-0-0-0------0-4-5--------0--0-0------------------|
                  . . . .                      . .
|-------------------------------------------------------------------|
|-------------------------------------------------------------------|
|---------------------------------------------------8-----8-----8-8-|
|-----------------------------------6-----6-----6-6-8-----8-----8-8-|
|------3--3-4-------------6-4-------6-----6-----6-6-6-6-6-6-6-6-6-6-|
|0-4-5--------0--0-0-0-0------0-4-5-4-4-4-4-4-4-4-4-----------------|
                 . . . .      . . .   . .   . .       . .   . .

Riff#3
|-------------------------------------------------------------------|
|-------------------------------------------------------------------|
|-------------------------------------------------------------------|
|-------------------------------------------------------------------|
|------3--3-4-----------------------3--3-4--------------------------|
|0-4-5--------0-0-0-0-0-0-0-0-0-0-0-------0-0-0-0-0-0-0-0-0-0-0-----|
 . . .          . . . . . . . . . .         . . . . . . . . . .

|-------------------------------------------------------------------|
|-------------------------------------------------------------------|
|-------------------------------------------------------------------|
|-------------------------------------------------------------------|
|-3--3-4------------------------------------------------------------|
|--------0-0-0-0-0-0-0-0-0-0-0--------------------------------------|
           . . . . . . . . . .
(Continued)
|-------------------------------------------------------------------|
|-------------------------------------------------------------------|
|-------------------------------------------------------------------|
|6-6-6-6-6-6-6-6-6-6-6-6-6-6-6--------------------------------------|
|6-6-6-6-6-6-6-6-6-6-6-6-6-6-6--------------------------------------|
|4-4-4-4-4-4-4-4-4-4-4-4-4-4-4--------------------------------------|


Riff#4
|-------------------------------------------------------------------|
|-------------------------------------------------------------------|
|--7--7--7--7--7--7--7--7--7--7--7--7--7--7--7--7-------------------|
|-7--7--7--7--7--7--7--7--7--7--7--7--7--7--7--7--------------------|
|5--5--5--5--5--5--5--5--5--5--5--5--5--5--5--5---------------------|
|-------------------------------------------------------------------|

Riff#5a (2x)
Guitar 1(Hard to hear)
|-------------------------------------------------------------------|
|/6-6-6-6-6-6-6-6-6-6-6-6-6-6-1010101010101010--13-13-13-13-13-13-13|
|-------------------------------------------------------------------|
|-------------------------------------------------------------------|
|-------------------------------------------------------------------|
|-------------------------------------------------------------------|

Guitar 2
|-------------------------------------------------------------------|
|-------------------------------------------------------------------|
|-------------------------------------------------------------------|
|5-5-5-5-5-5-5-5-5-5-5-5-5-5-9-9-9-9-9-9-9-9-9-9--121212121212121212|
|5-5-5-5-5-5-5-5-5-5-5-5-5-5-9-9-9-9-9-9-9-9-9-9--121212121212121212|
|3-3-3-3-3-3-3-3-3-3-3-3-3-3-7-7-7-7-7-7-7-7-7-7--101010101010101010|


Solo#1

Guitar 1
|------------------------------------------------------------|
|-11wb-11pwb-11--13--11----------------------11wb-11--13/16--|
|-----------------------13-12-13--10--13---------------------|
|----------------------------------------13------------------|
|------------------------------------------------------------|
|------------------------------------------------------------|

--------------13-13/16-15-13~-|
--14-13-11-13-----------------|
------------------------------|
------------------------------|
------------------------------|
------------------------------|

Guitar 2
|------------------------------------------------------------|
|------------------------------------------------------------|
|-12hb-12phb-12--13--12-10----10--------------12hb-12-13/17--|
|--------------------------13-----10--13---------------------|
|-----------------------------------------13-----------------|
|------------------------------------------------------------|

-------------------16/20-18-16~----|
----------------13-----------------|
--15-13-12-13----------------------|
-----------------------------------|
-----------------------------------|
-----------------------------------|

Riff#3(2x)
Riff#4
Riff#5a(2X)
Riff#1(3x)

Solo#2
Guitar 1
|--------------------------------------------------------------20-|
|------------16---------------------------------------18-20-21----|
|---------------17--15-------15-15/17--------17-18-20-------------|
|-16wb-16pwb------------18-------------17-18----------------------|
|-----------------------------------------------------------------|
|-----------------------------------------------------------------|

------23--20--18-20p18p16-18p16p15-16p15p13~---------18-20-21-21/23~-|
19/21---------------------------------------18-20-21-----------------|
---------------------------------------------------------------------|
---------------------------------------------------------------------|
---------------------------------------------------------------------|
---------------------------------------------------------------------|

24fb~-24pfb~-24pwb~-24fb~24pfbr(to24pwb)-24phb~22phb-h-24phf-p-22----|phf
---------------------------------------------------------------------|
---------------------------------------------------------------------|
---------------------------------------------------------------------|
---------------------------------------------------------------------|
---------------------------------------------------------------------|

-20-23--18h20p18-16-18-20p18p16-18--18-16-15----------|
---------------------------------------------16-------|
------------------------------------------------15----|
---------------------------------------------------13-|
------------------------------------------------------|
------------------------------------------------------|

-----------------------------------24-20h24p20---------------|
-------------------------15-17~~~--------------20------------|
----------------14-15-17-------------------------------------|
----------15-17----------------------------------------------|
-15h17h18-----------------------------------------18p16p15~\-|
-------------------------------------------------------------|

Riff#4
Riff#5a(2x)


Riff#5b
Guitar 1
|-------------------------------------------------------------------|
|/6-6-6-6-6-6-6-6-6-6-6-6-6-6-1010101010101010--13-13-13-13-13-13-13|
|-------------------------------------------------------------------|
|-------------------------------------------------------------------|
|-------------------------------------------------------------------|
|-------------------------------------------------------------------|

Guitar 2
|-------------------------------------------------------------------|
|-------------------------------------------------------------------|
|-------------------------------------------------------------------|
|5-5-5-5-5-5-5-5/-9-9-9-9-9-9-9-9-9/--------------------------------|
|5-5-5-5-5-5-5-5/-9-9-9-9-9-9-9-9-9/--------------------------------|
|3-3-3-3-3-3-3-3/-7-7-7-7-7-7-7-7-7/--------------------------------|


Ending

Guitar 1
|-------------------------------------------------------------------|
|13-13-13-13-13-13-13-13-13-13-13-13-13-13-13-13-13-13-13-13-13-13--|
|-------------------------------------------------------------------|
|-------------------------------------------------------------------|
|-------------------------------------------------------------------|
|-------------------------------------------------------------------|

Guitar 2     3x
|-----------------I-------------------------------------------------|
|-----------------I-------------------------------------------------|
|-----------------I-------------------------------------------------|
|5-5-5-5-4/7/4/7--I-7-----------------------------------------------|
|5-5-5-5-4/7/4/7--I-7-----------------------------------------------|
|3-3-3-3-2/5-2/5--I-5-----------------------------------------------|
Tap to rate this tab
# A B C D E F G H I J K L M N O P Q R S T U V W X Y Z